E-Chords
Freedom faces

No sei assobiar ( ver. 2)(Tabs)

Freedom faces

E-5--5--5---2---2-------------------------- 
B--7--7--7---4---4------------------------- 
G--7--7--7---4---4------------------------- 
D------------------------------------------ 
A------------------------------------------ 
E------------------------------------------ 
 
no sei assobiar... 
 
E-2--2--2---5---5-------------------------- 
B--4--4--4---7---7------------------------- 
G--4--4--4---7---7------------------------- 
D------------------------------------------ 
A------------------------------------------ 
E------------------------------------------ 
 
no sei assobiar... 

roll up this ad to continue

share this page

See Also: