E-Chords
Franja de Gaza

Day(Tabs)

Franja de Gaza

roll up this ad to continue

Key: A
Intro 
E |---0---|---0-----0-|---0---|---0----0--| 
B |-----0-|-----3-----|-----0-|-----7-----| 
A |-------|-----------|-------|-----------| 
D |-2-----|-5-----5---|-7-----|-9-----9---| 
A |-------|-----------|-------|-----------| 
E |-------|-----------|-------|-----------| 
Riff 1 
E |-------------------------------| 
B |-------------------------------| 
A |-------------------------------| 
D |-------------------------------| 
A |-------------------------------| 
E |-0--0-2-3?-3-3-5-3-2-3--2-3-5--| 

E |----------------------| 
B |----------------------| 
A |----------------------| 
D |----------------------| 
A |----------------------| 
E |-0--0-2-3?-3-3-5-7?-3-| 
Riff 2 
A 
E |-----------------------------------| 
B |-----------------------------------| 
A |-----------------------------------| 
D |------------------10-9-7-----------| 
A |-7-7-9-7-10-7-9-7--------10-9-10-9-| 
E |-----------------------------------| 
B 
E |------------------7/8-7--8-7\5-----| 
B |------------------7/8-7--8-7\5-----| 
A |-----------------------------------| 
D |-----------------------------------| 
A |-7-7-9-7-10-7-9-7------------------| 
E |-----------------------------------| 
C 
E |------------------10-11-12---------| 
B |------------------10-11-12---------| 
A |------------------11-12-13---------| 
D |-----------------------------------| 
A |-7-7-9-7-10-7-9-7------------------| 
E |-----------------------------------| 
Riff 3 
E |-------------------------------| 
B |-------------------------------| 
A |-------------------------------| 
D |-------------------------------| 
A |-----------------3-2-0---------| 
E |-0-0-2-0?3-0-2-0-------3-2-3-2-| 

E |----------------------------| 
B |----------------------------| 
A |----------------------------| 
D |-----------------5-4--------| 
A |-----------------3-2--------| 
E |-0-0-2-0?3-0-2-0------3b--0-| 
Riff 4 

E |---------------------------------------------| 
B |---------------------------------------------| 
A |---------------------------------------------| 
D |--------7-9-10-9b?9h10-9-7-7h9p7-------------| 
A |-7-9-10--------------------------10-9-10-9-7-| 
E |---------------------------------------------| 
share this page

See Also: