E-Chords
Franja de Gaza

Black River(Tabs)

Franja de Gaza

roll up this ad to continue

E |---------------|--0-----0-----|---3-------2-|--0----------------| 
B |---1-----1---3-|---3-----3--0-|----0--------|--1?3p1p0-1p0---1--| 
G |-----2-----0---|----0-----0---|-----0-------|--2-----------2----| 
D |---------------|--------------|--------3----|--2----------------| 
A |-0-----3-------|--------------|-------------|--0----------------| 
E |---------------|--------------|-3-----------|-------------------| 

E |---------------|--0-----0-----|---3-------2-|--0---| 
B |---1-----1---3-|---3-----3--0-|----0--------|--1?--| 
G |-----2-----0---|----0-----0---|-----0-------|--2---| 
D |---------------|--------------|--------3----|--2---| 
A |-0-----3-------|--------------|-------------|--0---| 
E |---------------|--------------|-3-----------|------| 


E |---------------|--0-----0-----|---3-------2-|--0----------------| 
B |---1-----1---3-|---3-----3--0-|----0--------|--1?3p1p0-1p0---1--| 
G |-----2-----0---|----0-----0---|-----0-------|--2-----------2----| 
D |---------------|--------------|--------3----|--2----------------| 
A |-0-----3-------|--------------|-------------|--0----------------| 
E |---------------|--------------|-3-----------|-------------------| 

E |---------------|--0-----0-----|---3----2---|--0---------------| 
B |---1-----1---3-|---3-----3--0-|----0----1--|--1?3p1p0-1-------| 
G |-----2-----0---|----0-----0---|------2-----|--2-----------2---| 
D |---------------|--------------|------------|--2---------------| 
A |-0-----3-------|--------------|------------|--0---------------| 
E |---------------|--------------|-3----------|------------------| 

E |---------------|--0-----0-----|---3----2---|--0----------------| 
B |---1-----1---3-|---3-----3--0-|----0-----1-|--1?3p1p0-1p0---1--| 
G |-----2-----0---|----0-----0---|-----2------|--2-----------2----| 
D |---------------|--------------|------------|--2----------------| 
A |-0-----3-------|--------------|------------|--0----------------| 
E |---------------|--------------|-3----------|-------------------| 

Voz  
E |---------------|--0-----0-----|---3----2---|--0----------------| 
B |---1-----1---3-|---3-----3--0-|----0-----1-|--1?3p1p0-1p0---1--| 
G |-----2-----0---|----0-----0---|-----2------|--2-----------2----| 
D |---------------|--------------|------------|--2----------------| 
A |-0-----3-------|--------------|------------|--0----------------| 
E |---------------|--------------|-3----------|-------------------| 

E |---------------|--0-----0-----|---3----2---|--0---------------| 
B |---1-----1---3-|---3-----3--0-|----0----1--|--1?3p1p0-1-------| 
G |-----2-----0---|----0-----0---|------2-----|--2-----------2---| 
D |---------------|--------------|------------|--2---------------| 
A |-0-----3-------|--------------|------------|--0---------------| 
E |---------------|--------------|-3----------|------------------| 

E |---------------|--0-----0-----|---3----2---|--0----------------| 
B |---1-----1---3-|---3-----3--0-|----0-----1-|--1?3p1p0-1p0---1--| 
G |-----2-----0---|----0-----0---|-----2------|--2-----------2----| 
D |---------------|--------------|------------|--2----------------| 
A |-0-----3-------|--------------|------------|--0----------------| 
E |---------------|--------------|-3----------|-------------------| 

E |---------------|--0-----0-----|---3----2---|--0---| 
B |---1-----1---3-|---3-----3--0-|----0-----1-|--1?--| 
G |-----2-----0---|----0-----0---|-----2------|--2---| 
D |---------------|--------------|------------|--2---| 
A |-0-----3-------|--------------|------------|--0---| 
E |---------------|--------------|-3----------|------| 
Base 
|---------------|--------------|-------------|----------------------| 
|---------------|--------------|-------------|----------------------| 
|---------------|--------------|-------------|----------------------| 
|---------3-2-0-|-------2-3-5--|-------------|-------3-----3---3----| 
|--0-0-0--------|-3-3-3--------|-------5-3-2-|-0-0-0---0-0---0---0--| 
|---------------|--------------|-3-3-3-------|----------------------| 

Solo 
|---------------|--------------|-------------|----------------------------------| 
|--14-14-17b19?17p14-17b19?pb19r17?15-14-15p14---14-14?15p14--------------------| 
|---------------|--------------|-------------|---------------16p14?16-16b18-----| 
|---------------|--------------|-------------|----------------------------------| 
|---------------|--------------|-------------|----------------------------------| 
|---------------|--------------|-------------|----------------------------------| 

|----------------------------------------------------------------| 
|----17-19-19---19b21-19b21--19-19-17--------------------------------| 
|-18--------------|--------------|-----------------------------------| 
|----------------------------------------------------------------| 
|----------------------------------------------------------------| 
|----------------------------------------------------------------| 

|-------------------------------------------------------| 
|----------------------------12-11--9------11p9---------| 
|-9-9-9p8----8-9-8-----8-9-------------10-------10------| 
|---------11-------11-----------------------------------| 
|-------------------------------------------------------| 
|-------------------------------------------------------| 

|-------------------------------------------------------| 
|----------------------------12-11--9------11-9---------| 
|-9-9-9p8----8-9-8-----8-9-------------10---------------| 
|---------11-------11-----------------------------------| 
|-------------------------------------------------------| 
|-------------------------------------------------------| 

|--19b21?19p17---19b21?pb21r19-17-16?17p16-----------------------| 
|------------------------------------------19--17-16-17-19p17p16-| 
|----------------------------------------------------------------| 
|----------------------------------------------------------------| 
|----------------------------------------------------------------| 
|----------------------------------------------------------------| 

|--19b21r19p17---19b21?pb21r19-17-17b19r17p16------------------------| 
|---------------------------------------------19--19-17-16-14-12-10--| 
|--------------------------------------------------------------------| 
|--------------------------------------------------------------------| 
|--------------------------------------------------------------------| 
|--------------------------------------------------------------------| 

Interlude 
|---------------------------------------------------------------| 
|---------------------------------------------------------------| 
|---------------------------------------------------------------| 
|---------------------------------------------------------------| 
|-------6-5--3---------4-5-7----------5-3-1--------6-5-3--------| 
|-3-3-3----------5-5-5---------1-1-1---------3-3-3--------------| 

|-------------------------------------------------------------------| 
|-------------------------------------------------------------------| 
|-------------------------------------------------------------------| 
|-------------------------------------------------------------------| 
|-------6-5--3---------4-5-7----------5-3-1--------6------6p5-6p5---| 
|-3-3-3----------5-5-5---------1-1-1---------3-3-3---3-3------------| 

Waiting on my soul?. 

|------------------------------------------------------------------| 
|------------------------------------------------------------------| 
|------------------------------------------------------------------| 
|------------------------------------------------------------------| 
|-------6-5--3---------4-5-7----------5-3-1--------6-5-3-----------| 
|-3-3-3----------5-5-5---------1-1-1---------3-3-3-------6-5-6p5---| 

|-------------------------------------------------------------------| 
|-------------------------------------------------------------------| 
|-------------------------------------------------------------------| 
|-------------------------------------------------------------------| 
|-------6-5--3---------4-5-7----------5-3-1--------6------6p5-6p5---| 
|-3-3-3----------5-5-5---------1-1-1---------3-3-3---3-3------------| 


Solo 

|-------------------------------------------------------------------| 
|--------------20-18-16-18-15-15------------------------------------| 
|-19-20-19-20-----------------------19-20-19-17-15-17-15-14/17-15---| 
|-------------------------------------------------------------------| 
|-------------------------------------------------------------------| 
|-------------------------------------------------------------------| 

|--------------18-17?17h18p17-------17-18-----17h18-18?17h18h20-20--18-17-20-20b22-| 
|-----------------------------20-20--------20--------------------------------------| 
|-/19-20-19-20---------------------------------------------------------------------| 
|----------------------------------------------------------------------------------| 
|----------------------------------------------------------------------------------| 
|----------------------------------------------------------------------------------| 

|---------------------------------------| 
|---------------------------------------| 
|---------------------------------------| 
|---------------------------------------| 
|--------------------------3--3---------| 
|--3-3-3--6-3-0--1---1-1-1-------1--3---| 
share this page

See Also: