E-Chords
Fracis Scott Key

Star Spangled banner(Tabs)

Fracis Scott Key

roll up this ad to continue

 
E--------------0-4-2-0---------------------4-2-0-------------0-0------------ 
B-0---------0-----------------------0---0-0-----------4---2-4-------0-------  
G---1----1------------------1--3-----------------------------------------1----- 
D------2----------------------------------------------------------------------2-- 
A--------------------------------------------------------------------------------- 
E---------------------------------------------------------------------------------  
 
E---------------0--4-2-0---------------------4-2-0-------------0-0--------- 
B-0---------0----------------------0---0-0-----------4---2-4-------0------  
G---1----1-----------------1--3-----------------------------------------1---- 
D------2---------------------------------------------------------------------2- 
A-------------------------------------------------------------------------------- 
E--------------------------------------------------------------------------------  
 
E-4--4-4-5-7-7--5-4-2-4-5-5---5-4-2-0-----------0------------------- 
B------------------------------------------------4--2-4------------0---------- 
G------------------------------------------------------------1--3-------------- 
D-------------------------------------------------------------------------------- 
A-------------------------------------------------------------------------------- 
E-------------------------------------------------------------------------------- 
 
E---------0-0--0-----------2--5-4------------------0-2-4-5-7------------- 
B-0--0----------4-2--2-2----------5--5--4--0-0--------------------------- 
G-------------------------------------------------------------------------------- 
D-------------------------------------------------------------------------------- 
A-------------------------------------------------------------------------------- 
E-------------------------------------------------------------------------------- 
 
E-0--2--4---5---2---0--------------------------------------------------------- 
B--------------------------------------------------------------------------------- 
G--------------------------------------------------------------------------------- 
D--------------------------------------------------------------------------------- 
A--------------------------------------------------------------------------------- 
E--------------------------------------------------------------------------------- 
 
 
Tabbed by: puppenborn 
 
hello, this is my first tab sooo if theirs anything wrong just feel to email me at [email protected] .  
ok!! but im pretty sure that this is how it goes tho ok BYES 
 
share this page

See Also: