E-Chords
For The Broken

Elysium(Tabs)

For The Broken

Key: B

C#|---------------------------------------------------------------------| 
G#|---------------------------------------------------------------------| 
E |---------------------------------------------------------------------| 
B |---------------------------------------------------------------------| x2 
F#|----------7---8--------7---8--------12---10--------7---8-------------| 
B |----0-0-0---0----7-7-7---7----8-8-8----8-----7-7-7---7---------------| 
   PM  . . .   .    . . .   .    . . .    .     . . .   .  


C#|---------------------------------------------------------------------| 
G#|---------------------------------------------------------------------| 
E |---------------------------------------------------------------------| 
B |---------------------------------------------------------------------|        
F#|----------7---8--------8---7--------10---8------------10----12-------| 
B |----0-0-0---0----7-7-7---7----8-8-8----8-----10-10-10----10----------| 
   PM  . . .   .    . . .   .    . . .    .     .  .  .     .  


C#|---------------------------------------------------------------------| 
G#|---------------------------------------------------------------------| 
E |---------------------------------------------------------------------| 
B |---------------------------------------------------------------------| x3 
F#|----------5------------8---------------------------------------------| 
B |----0-0-0---0-8--0-0-0---0-3---0-0-0-0~-0-0~--0-0-0-0~-0-0~----------| 
   PM  . . .   .    . . .   .     . . .    .     . . .    .  


C#|---------------------------------------------------------------------| 
G#|---------------------------------------------------------------------| 
E |---------------------------------------------------------------------| 
B |----------------------------------------------------------------0~~--|        
F#|----------5------------8-------------8---10-----------10----12--0~~--| 
B |----0-0-0---0-8--0-0-0---0-3---8-8-8---8-----10-10-10----10-----0~~--| 
   PM  . . .   .    . . .   .     . . .   .     .  .  .     .  


C#|----8~------------8~-----8-----| 
G#|------6~---6~-------6~---------| 
E |--------9~---9~-------9~-------| 
B |-------------------------------|      
F#|-------------------------------| 
B |-------------------------------| 


C#|----8-------------------5---------------5--------------5-------------| 
G#|------6----6h8p6----6-8---8-6----5--6-8---8-6----5-6-8---8-6---------| 
E |--------9---------9------------9---------------9--------------9------|  
B |---------------------------------------------------------------------| x2     
F#|---------------------------------------------------------------------| 
B |---------------------------------------------------------------------| 


C#|---------------------------------------------------------------------| 
G#|---/18-17-------------17-18-17-<20>~~----------17-18-17--------------| 
E |----------17-------17----------------------17-----------17-----------|        
B |-------------17~~-----------------------17-----------------17--------|        
F#|--------------------------------------------------------------19-----| 
B |---------------------------------------------------------------------| 


C#|---------------------------------------------------------------------| 
G#|---/18-17-------------17-18-17-----------------17-18-17--------------| 
E |----------17-------17----------17~~--------17-----------17-----------|        
B |-------------17~~-----------------------17-----------------17--------|        
F#|--------------------------------------------------------------19-----| 
B |---------------------------------------------------------------------| 


C#|---------------------------------------------------------------------| 
G#|---------------------------------------------------------------------| 
E |---------------------------------------------------------------------|        
B |---------------------------------------------------------------------|        
F#|---------------------------------------------------------------------| 
B |----0-0-0-0~-0-0~--0-0-0-0~-0-0~--0-0-0-0~-0-0~--3-3-3-3-7-7-7-0-----| 
   PM  . . .    .     . . .    .     . . .    .     . . . . . . .  


C#|---------------------------------------------------------------------| 
G#|---------------------------------------------------------------------| 
E |---------------------------------------------------------------------|        
B |---------------------------------------------------------------------|        
F#|---------------------------------------------------------------------| 
B |----0-0-0-0~-0-0~--0-0-0-0~-0-0~--0-0-0-0~-0-0~----------------------| 
   PM  . . .    .     . . .    .     . . .    .       


C#|--------------------------------------------------------------------------| 
G#|--------------------------------------------------------------------------| 
E |--------------------------------------------------------------------------|   
B |--------------------------------------------------------------------------|   
F#|----0--0-0-0--0-0-0--0-0--------------0-x\\\-0-0-0--0-0-0--0-0------------| 
B |----0--0-0-0--0-0-0--0-0-8-7-5-7-3-3--0-x\\\-0-0-0--0-0-0--0-0-8-7-5-7-3--| 
   PM  .  . . .  . . .  . .              .      . . .  . . .  . . 


C#|--------------------------------------------------------------------------| 
G#|--------------------------------------------------------------------------| 
E |--------------------------------------------------------------------------|   
B |--------------------------------------------------------------------------|   
F#|----0~--0-0-0--0-0-0~--0-0-0--0-0-0~--0-0-0--0-7-8-7-3~-------------------| 
B |----1~--1-1-1--1-1-1~--1-1-1--1-1-1~--1-1-1--1----------------------------| 
   PM  .   . . .  . . .   . . .  . . .   . . .  .  


C#|--------------------------------------------------------------------------| 
G#|----------------------------------------------------------13~---------13~-| 
E |---10-9-----10-9-----12-9-----10-9-----10-9----10--9~-10~------9~-10~-----|   
B |--------10-------10-------10-------10-------10----------------------------| x4        
F#|--------------------------------------------------------------------------| 
B |--------------------------------------------------------------------------| 
   PM      .        .        .        .        .   


C#|--------------------------------------------------------------------------| 
G#|--------------------------------------------------------------------------| 
E |----5~--7~--9~--10~--12~--14~--15~--17\-----------------------------------|   
B |--------------------------------------------------------------------------|   
F#|--------------------------------------------------------------------------| 
B |--------------------------------------------------------------------------| 


C#|-------------------------------------------------| 
G#|-------------------------------------------------| 
E |-------------------------------------------------|    
B |-------------------------------------------------|    
F#|----0~--0-0-0~-0~-0~--0-0-0~--0-0-0-0-0-0-0-0----| 
B |----0~--0-0-0~-0~-0~--0-0-0~--0-0-0-0-0-0-0-0----| 
   PM  .   . . .  .  .   . . .   . . . . . . . .  


C#|----8~----------------------8~-------------------| 
G#|-------6~----------------------6~----------------| 
E |----------9~----------------------9~-------------|    
B |-------------------------------------------------|            
F#|-------------------------------------------------| 
B |-------------------------------------------------| 


C#|--------------------------------------------------------------------------| 
G#|--------------------------------------------------------------------------| 
E |--------------------------------------------------------------------------|  x2       
B |--------------------------------------------------------------------------|   
F#|----0~--0-0-0~-0~-0~--0-0-0~--0-0-0-0-0-0-0-0-----------------------------| 
B |----0~--0-0-0~-0~-0~--0-0-0~--0-0-0-0-0-0-0-0-----------------------------| 
   PM  .   . . .  .  .   . . .   . . . . . . . .  


C#|--------------------------------------------------------------------------| 
G#|--------------------------------------------------------------------------| 
E |--------------------------------------------------------------------------|   
B |--------------------------------------------------------------------------|  x2       
F#|--------------------------------------------------------------------------| 
B |----0--0-0-0-0-0--0-0-0--0-0-0-0-0-0-0-0----------------------------------| 
   PM     . .        . .    . . . . . . . .  


C#|--------------------------------------------------------------------------| 
G#|--------------------------------------------------------------------------| 
E |--------------------------------------------------------------------------|   
B |--------------------------------------------------------------------------|   
F#|----1~--1-1-1~-1~-1~--1-1-1~--1-1-1~--------------------------------------| 
B |----0~--0-0-0~-0~-0~--0-0-0~--0-0-0~--------------------------------------| 
   PM  .   . . .  .  .   . . .   . . .   


C#|--------------------------------------------------------------------------| 
G#|--------------------------------------------------------------------------| 
E |--------------------------------------------------------------------------|   
B |--------------------------------------------------------------------------|   
F#|----1~--1-1-1~-1~-1~--1-1-1~--\\\\\\--------------------------------------| 
B |----0~--0-0-0~-0~-0~--0-0-0~--\\\\\\--------------------------------------| 
   PM  .   . . .  .  .   . . .      


C#|--------------------------------------------------------------------------| 
G#|--------------------------------------------------------------------------| 
E |--------------------------------------------------------------------------|   
B |--------------------------------------------------------------------------|           
F#|--------------------------------------------------------------------------| 
B |----0--0-0-0-0-0--0-0-0--0-0-0-0-0-0-0-0--0--0-0-0-0-0--0-0-0-------------| 
   PM     . .        . .    . . . . . . . .     . .        . .    


C#|----8-------------------5---------------5--------------5-------------| 
G#|------6----6h8p6----6-8---8-6----5--6-8---8-6----5-6-8---8-6---------| 
E |--------9---------9------------9---------------9--------------9------| 
B |---------------------------------------------------------------------| x2 
F#|---------------------------------------------------------------------| 
B |---------------------------------------------------------------------| 

  
C#|---------------------------------------------------------------------| 
G#|---/18-17-------------17-18-17-<20>~~----------17-18-17--------------| 
E |----------17-------17----------------------17-----------17-----------|        
B |-------------17~~-----------------------17-----------------17--------|        
F#|--------------------------------------------------------------19-----| 
B |---------------------------------------------------------------------| 


C#|---------------------------------------------------------------------| 
G#|---/18-17-------------17-18-17-----------------17-18-17--------------| 
E |----------17-------17----------17~~--------17-----------17-----------|        
B |-------------17~~-----------------------17-----------------17--------|        
F#|--------------------------------------------------------------19-----| 
B |---------------------------------------------------------------------| 


C#|---------------------------------------------------------------------| 
G#|---------------------------------------------------------------------| 
E |---------------------------------------------------------------------|        
B |---------------------------------------------------------------------|        
F#|---------------------------------------------------------------------| 
B |----0-0-0-0~-0-0~--0-0-0-0~-0-0~--0-0-0-0~-0-0~--3-3-3-3-7-7-7-0-----| 
   PM  . . .    .     . . .    .     . . .    .     . . . . . . .  


C#|---------------------------------------------------------------------| 
G#|---------------------------------------------------------------------| 
E |---------------------------------------------------------------------|        
B |---------------------------------------------------------------------|        
F#|---------------------------------------------------------------------| 
B |----0-0-0-0~-0-0~--0-0-0-0~-0-0~--0-0-0-0~-0-0~----------------------| 
   PM  . . .    .     . . .    .     . . .    .       


C#|--------------------------------------------------------------------------| 
G#|--------------------------------------------------------------------------| 
E |--------------------------------------------------------------------------|   
B |----2-1-0--2-1-0--x--x-x--2-1-0--2-1-0------------------------------------|           
F#|----2-1-0--2-1-0--x--x-x--2-1-0--2-1-0------------------------------------| 
B |----2-1-0--2-1-0--x--x-x--2-1-0--2-1-0------------------------------------| 


C#|--------------------------------------------------------------------------| 
G#|--------------------------------------------------------------------------| 
E |--------------------------------------------------------------------------|   
B |----2-1-0--2-1-0----2-1-0--2-1-0---2-1-0~--2-1-0~--2-1-0~--2-1-0~---------|           
F#|----2-1-0--2-1-0----2-1-0--2-1-0---2-1-0~--2-1-0~--2-1-0~--2-1-0~---------| 
B |----2-1-0--2-1-0----2-1-0--2-1-0---2-1-0~--2-1-0~--2-1-0~--2-1-0~---------| 


C#|--------------------------------------------------------------------------| 
G#|--------------------------------------------------------------------------| 
E |--------------------------------------------------------------------------|   
B |----2-1-0--2-1-0--2-1-0--2-1-0---2-1-0------------------------------------|           
F#|----2-1-0--2-1-0--2-1-0--2-1-0---2-1-0------------------------------------| 
B |----2-1-0--2-1-0--2-1-0--2-1-0---2-1-0------------------------------------| 



************************************ 

| /   slide up 
| \   slide down 
| h   hammer-on 
| p   pull-off 
| ~   vibrato 
| <>  Pinch harmonic 
| .   Palm mute 
| x   Mute note 

************************************ 

roll up this ad to continue

share this page

See Also: