E-Chords
For Our Last Hopes

Words Of The Dead (live)(Tabs)

For Our Last Hopes

roll up this ad to continue

Key: A#
 Intro (Rhythm) 
e|--------------------------------------------------------------------------------------------------------| 
B|--------------------------------------------------------------------------------------------------------| 
G|--------------------------------------------------------------------------------------------------------| 
D|-0~-0~-0~-----0~-0~-0-0-0---------------8~-8~-8~-----8~-8~-8-8-8-----------5~-5~-5----5-5-5-5-5-5-5-5-5-| 
A|-0~-0~-0~--8--0~-0~-0-0-0--7-8-7-5------8~-8~-8~--8--8~-8~-8-8-8--7-8-7-5--5~-5~-5--8-5-5-5-5-5-5-5-5-5-| 
E|-0~-0~-0~-----0~-0~-0-0-0----------(x2)-8~-8~-8~-----8~-8~-8-8-8-----------5~-5~-5----5-5-5-5-5-5-5-5-5-| 
   *  *  *      *  *  * * *               *  *  *      *  *  * * *           *  *  *    * * * * *   * * 
 Intro (Lead) 
e|---------------------------------------------13-12----15--13-12---------------------------------| 
B|---------------------------------------------------13-----------13---------18~-15~-17~-13/10~---| 
G|-------------------------------------------------------------------14---------------------------| 
D|-14---14-15-17-15--14~--------------------------------------------------------------------------| 
A|----15-----------------10-12-10-12-10~----------------------------------------------------------| 
E|---------------------------------------(x2)---------------------------(x2)----------------------| 

 verse 1 (Tremolo Picking) 
e|-----------------------------------------------------------------------------------------------------| 
B|-----------------------------------------------------------------------------------------------------| 
G|-----------------------------------------------------------------------------------------------------| 
D|-----------------------------------------------------------------------------------------------------| 
A|--555-777-888-777-------444-555-777-------555-777-888-777-------4444444444444444-0000000000000000----| 
E|------------------(x2)--------------(x2)------------------(x3)---------------------------------------| 

 Chorus 
e|------------------------------------------------------------------------------------------------------------| 
B|--------------------------------------------------------------------------------------------------------11--| 
G|----------------------------------------------------------------------------------------------------------14| 
D|-0~~~-0~~~---------------------------2h3br0-2h3br0----------------------2h3br0-2h3br0-0-0-0-0-0-0-0-0-0-----| 
A|-0~~~-0~~~-0-0-0--3-5-0-0-0-0-0--3-5----------------0-0-0-3-5-0-0-0-0-0---------------0-0-0-0-0-0-0-0-0-----| 
E|-0~~~-0~~~-0-0-0------0-0-0-0-0---------------------0-0-0-----0-0-0-0-0---------------0-0-0-0-0-0-0-0-0-----| 
   *    *    * * *      * * * * *                     * * *     * * * * *               * * * * * * * * *  
 Chorus 
e|---------------------------------------------------------------------------------------------------| 
B|--------------------6------------------------------------------------------------------------------| 
G|---------------------9-----------------------------------------------------------------------------| 
D|-0-0-0-0-0-0-0-0-0-------(NOW REPEAT WHOLE Chorus ONE MORE TIME)--0~~~~~~~~~~~~~~~~~~~-------------| 
A|-0-0-0-0-0-0-0-0-0------------------------------------------------0~~~~~~~~~~~~~~~~~~~~------------| 
E|-0-0-0-0-0-0-0-0-0------------------------------------------------0~~~~~~~~~~~~~~~~~~~~------------| 
   * * * * * * * * *  


(BASS BREAK) 


 Bridge 
e|------------------------------------------------------------------------------------------------------| 
B|------------------------------------------------------------------------------------------------------| 
G|----------------------15----14------------------------------------------------------------------------| 
D|-1/12v----12-15-14-12----12----12--------------------17----17-------19---19----19--19-----------------| 
A|----------------------------------------15-17-15-17-----15----15-17---17-----19--19-------------------| 
E|----------------------------------(x4)----------------------------------------------------------------| 

 Bridge 
e|------------------------------------------------------------------------------------------------------------| 
B|------------------------------------------------------------------------------------------------------------| 
G|-------------------15----14---------------------------------------------------------------------------------| 
D|-12-15-14-12----12----12-------------------------17----17--------19---19----19--19-------------15----14---2~| 
A|----------------------------------15-17-15-17-------15----15--17---17-----19--19---12-15-14-12----12--------| 
E|----------------------------(x5)-----------------------------------------------(x1)------------------(x2)---| 

 Chorus 
e|------------------------------------------------------------------------------------------------------------| 
B|--------------------------------------------------------------------------------------------------------11--| 
G|----------------------------------------------------------------------------------------------------------14| 
D|-0~~~-0~~~---------------------------2h3br0-2h3br0----------------------2h3br0-2h3br0-0-0-0-0-0-0-0-0-0-----| 
A|-0~~~-0~~~-0-0-0--3-5-0-0-0-0-0--3-5----------------0-0-0-3-5-0-0-0-0-0---------------0-0-0-0-0-0-0-0-0-----| 
E|-0~~~-0~~~-0-0-0------0-0-0-0-0---------------------0-0-0-----0-0-0-0-0---------------0-0-0-0-0-0-0-0-0-----| 
   *    *    * * *      * * * * *                     * * *     * * * * *               * * * * * * * * *  
 Chorus 
e|---------------------------------------------------------------------------------------------------| 
B|--------------------6------------------------------------------------------------------------------| 
G|---------------------9-----------------------------------------------------------------------------| 
D|-0-0-0-0-0-0-0-0-0-------(NOW REPEAT WHOLE Chorus ONE MORE TIME)--0~~~~~~~~~~~~~~~~~~~-------------| 
A|-0-0-0-0-0-0-0-0-0------------------------------------------------0~~~~~~~~~~~~~~~~~~~~------------| 
E|-0-0-0-0-0-0-0-0-0------------------------------------------------0~~~~~~~~~~~~~~~~~~~~------------| 
   * * * * * * * * * 

Outro (Same as first verse) 

Keys 
************************************ 

| /   slide up 
| \   slide down 
| h   hammer-on 
| p   pull-off 
| ~   vibrato 
| +   harmonic 
| x   Mute note 
| b   Bend 
| pb  Pre-bend 
| br  Bend release 
| pbr Pre-bend release 
| brb Bend release bend 

************************************ 
share this page

See Also: