E-Chords
For Our Last Hopes

(can't) Break Me(Tabs)

For Our Last Hopes

roll up this ad to continue

Key: A#
Tuning:  A# F A# D# G C 

 Intro Riff (x4) 
e|---------------------------------------------------------------------------| 
B|---------------------------------------------------------------------------| 
G|---------------------------------------------------------------------------| 
D|---------------------------------------------------------------------------| 
A|-8----------------------3-5-3----------------------------------------------| 
E|---0-12-10h12p-8-0-55-8--------3br0-3br0-3br0-3br0-0-0-0-------------------| 
  verse 1 
e|---------------------------------------------------------------------------| 
B|---------------------------------------------------------------------------| 
G|---------------------------------------------------------------------------| 
D|---------------------------------------------------------------------------| 
A|---------------------------5h8p-5h8p--------------------------0-0-0--------| 
E|-1br0-1br0-1br0-1br0 1br0------------(x3)-1br0-1br0-1br0-1br0-0-0-0--------| 
                                                                * * * 
  Chorus                                                                  
e|---------------------------------------------------------------------------| 
B|---------------------------------------------------------------------------| 
G|---------------------------------------------------------------------------| 
D|-88888888-1010101010101010-000~-000~-000--000~-------------0~~~~~~~~~~~~~--| 
A|-88888888-1010101010101010-000~-000~-000--000~-0-0-0-------0~~~~~~~~~~~~~--| 
E|-88888888-1010101010101010-000~-000~-000~-000~-0-0-0-(x5)--0~~~~~~~~~~~~~--| 
                             ***  ***  ***  ***  * * * 
  After Chorus Thingy 
e|---------------------------------------------------------------------------| 
B|---------------------------------------------------------------------------| 
G|---------------------------------------------------------------------------| 
D|-88888888-1010101010101010-0000000000000000------88888888-1010101010101010-| 
A|-88888888-1010101010101010-0000000000000000------88888888-1010101010101010-| 
E|-88888888-1010101010101010-0000000000000000-(x3)-88888888-1010101010101010-| 
  Breakdown 
e|-----------------------------------------------------------------------------------------------------------| 
B|-----------------------------------------------------------------------------------------------------------| 
G|-----------------------------------------------------------------------------------------------------------| 
D|-0~-0-----0------------0~-0-----0-8-8-8------0~-0-----0-------------0~-0-----0-8-8-8------0--0-------------| 
A|-0~-0-----0-0-0-0------0~-0-----0-8-8-8------0~-0-----0-0-0-0-------0~-0-----0-8-8-8------0--0-----0-0-0-0-| 
E|-0~-0-----0-1-1-1-(2x)-0~-0-----0-8-8-8-(x1)-0~-0-----0-1-1-1-(x2)--0~-0-----0-8-8-8-(1x)-0~-0-----0-1-1-1-| 
   *  *     * * * *      *  *     * * * *      *  *     * * * *       *  *     * * * *      *  *     * * * * 
  verse 2 
e|-----------------------------------------------------------------------------------------------------------| 
B|-----------------------------------------------------------------------------------------------------------| 
G|-----------------------------------------------------------------------------------------------------------| 
D|-----------------------------------------------------------------------------------------------------------| 
A|------6br0------7br0-788-----------6br0------7br0---2h3p2--------------------------------------------------| 
E|-3br0------3br0----------(1x)-3br0------3br0------0------3-------------------------------------------------| 
                                                    * 
  Bridge 
e|----------------------------------------------------------------------------------------| 
B|----------------------------------------------------------------------------------------| 
G|----------------------------------------------------------------------------------------| 
D|-8888888888888888-10101010101010101010101010101010-0000000000000000-3333333333333333----| 
A|-8888888888888888-10101010101010101010101010101010-0000000000000000-3333333333333333----| 
E|-8888888888888888-10101010101010101010101010101010-0000000000000000-3333333333333333----| 
   
  Chorus                                                                
e|---------------------------------------------------------------------------------------------| 
B|---------------------------------------------------------------------------------------------| 
G|---------------------------------------------------------------------------------------------| 
D|-88888888-1010101010101010-0000000000000000------88888888-77777777--0~~~~~~~~~~~~~~~~~-------| 
A|-88888888-1010101010101010-0000000000000000------88888888-77777777--0~~~~~~~~~~~~~~~~~-------| 
E|-88888888-1010101010101010-0000000000000000-(x4)-88888888-77777777--0~~~~~~~~~~~~~~~~~-------| 


Keys: 
************************************ 
| h   hammer-on 
| p   pull-off 
| ~   vibrato 
| * Palm Mute 
| b   Bend 
| pb  Pre-bend 
| br  Bend release 
| pbr Pre-bend release 
| brb Bend release bend 

************************************ 
share this page

See Also: