E-Chords
Flávio

Ya(Tabs)

Flávio

roll up this ad to continue

Whole song 

e|---6----6------6----6------6----6------6----6------------------------------| 
B|--7-----7-----7-----7-----6-----6-----6-----6------9----9------9----9------| 
G|-8------8----8------8----4------4----4------4-----10----10----10----10-----| 
D|6-------6---6-------6----------------------------11-----11---11-----11-----| 
A|------------------------4-------4---4-------4---9-------9---9-------9------| 
E|---------------------------------------------------------------------------| 

e|------------------------| 
B|---7----7------7----7---| 
G|--8-----8-----8-----8---| 
D|-8------8----8------8---| 
A|------------------------| 
E|7-------7---7-------7---| 
share this page

See Also: