E-Chords
Flatsound

You Wrote Dont Forget On Your Arm(Tabs)

Flatsound

roll up this ad to continue

Key: B
 


verse 1 

e|----------|----------|----------|----------|----------|----------|----------|----------| 
B|--1--1--1-|--1--1--1-|--1--1--1-|--1--1--1-|--1--1--1-|--1--1--1-|--1--1--1-|--1--1--1-| 
G|---4--4---|---4--4---|---4--4---|---4--4---|---4--4---|---4--4---|---4--4---|---4--4---| 
D|----------|----------|----------|----------|----------|----------|----------|----------| 
A|-3--3--3--|-3--3--3--|-3--3--3--|-3--3--3--|-0--0--0--|-0--0--0--|-0--0--0--|-0--0--0--| 
E|----------|----------|----------|----------|----------|----------|----------|----------| 


Chorus 

e|----------|----------|----------|----------|----------|----------|----------|----------| 
B|--1--1--1-|--1--1--1-|--1--1--1-|--1--1--1-|--1--1--1-|--1--1--1-|--1--1--1-|--1--1--1-| 
G|---4--4---|---4--4---|---4--4---|---4--4---|---4--4---|---4--4---|---4--4---|---4--4---| 
D|----------|----------|----------|----------|----------|----------|----------|----------| 
A|-3--3--3--|-3--3--3--|-3--3--3--|-3--3--3--|-0--0--0--|-0--0--0--|-0--0--0--|-0--0--0--| 
E|----------|----------|----------|----------|----------|----------|----------|----------| 


its basically this for the whole song. it forced me to add a Chorus section even though there isn't one in the 
song. if you understand what im saying, its that you repeat this over and over until the song ends. 
share this page

See Also: