E-Chords
Fit For Rivals

Hit Me(Tabs)

Fit For Rivals

roll up this ad to continue

This is my first ever tab, I'm sure it's not 100% accurate but sounds good to me. Any constructive  
criticism is welcome. Don't be afraid to tell me which parts should be fixed. Enjoy! 

Intro 
e|--------------------------------------------------| 
b|--------------------------------------------------| 
g|--------------------------------------------------| 
d|--------------------------------------------------| 
a|--------------------------------------------------| 
E|-0-0-3-5-5-6-5-5-6-5-3-0-3-0-0-3-5-5-6-5-5-6-10-10|    

Verse 

e|--------------------------------------------------| 
b|--------------------------------------------------| 
g|--------------------------------------------------| 
d|--------------------------------------------------| 
a|--------------------------------------------------| 
E|---0-0-0-0-0-0-0~---------------------------------|    

e|--------------------------------------------------| 
b|--------------------------------------------------| 
g|--------------------------------------------------| 
d|--------------------------------------------------| 
a|-0-0-3-5-5-6-5-6-5-3-0-0-3------------------------| 
E|-0-0-3-5-5-6-5-6-5-3-0-0-3------------------------|  


e|--------------------------------------------------| 
b|--------------------------------------------------| 
g|--------------------------------------------------| 
d|--------------------------------------------------| 
a|---0-0-0-0-0-0-0~---------------------------------| 
E|---0-0-0-0-0-0-0~---------------------------------|      


e|--------------------------------------------------| 
b|--------------------------------------------------| 
g|--------------------------------------------------| 
d|--------------------------------------------------| 
a|-0-0-3-5-5-6-5-5-6-10-10--------------------------| 
E|-0-0-3-5-5-6-5-5-6-10-10--------------------------|   

e|--------------------------------------------------| 
b|--------------------------------------------------| 
g|--------------------------------------------------| 
d|--------------------------------------------------| 
a|---0-0-0-0-0-0-0~---------------------------------| 
E|---0-0-0-0-0-0-0~---------------------------------|   

e|--------------------------------------------------| 
b|--------------------------------------------------| 
g|--------------------------------------------------| 
d|--------------------------------------------------| 
a|-0-0-3-5-5-6-5-6-5-3-0-0-3------------------------| 
E|-0-0-3-5-5-6-5-6-5-3-0-0-3------------------------|  

e|--------------------------------------------------| 
b|--------------------------------------------------| 
g|--------------------------------------------------| 
d|-0-0-3-5-5-6-5-5-6-10-10--------------------------| 
a|-0-0-3-5-5-6-5-5-6-10-10--------------------------| 
E|-0-0-3-5-5-6-5-5-6-10-10--------------------------|   

Pre-Chorus 

e|--------------------------------------------------| 
b|--------------------------------------------------| 
g|--------------------------------------------------| 
d|-3-8-3-8-222-333-33-8-33-8-333-555-55555-222------| 
a|-3-8-3-8-222-333-33-8-33-8-333-555-55555-222------| 
E|-3-8-3-8-222-333-33-8-33-8-333-555-55555-222------|   

Chorus 

e|--------------------------------------------------| 
b|--------------------------------------------------| 
g|--------------------------------------------------| 
d|-000-3-555-6-555-6-5-3-0-3------------------------|  
a|-000-3-555-6-555-6-5-3-0-3------------------------|  
E|-000-3-555-6-555-6-5-3-0-3------------------------|    

e|--------------------------------------------------| 
b|--------------------------------------------------| 
g|--------------------------------------------------| 
d|-000-3-555-6-555-6-10-10--------------------------| 
a|-000-3-555-6-555-6-10-10--------------------------| 
E|-000-3-555-6-555-6-10-10--------------------------|   

Verse 

Pre Chorus 

Solo 

e|--------------------------------------------------| 
b|--------------------------------------------------| 
g|--------------------------------------------------| 
d|-8-8h9p8-7-6-4-1-8-9-8-7-6-4-12-------------------| 
a|--------------------------------------------------| 
E|--------------------------------------------------|    

e|--------------------------------------------------| 
b|--------------------------------------------------| 
g|--------------------------------------------------| 
d|-8-9-8-7-6-4-1-8-9-8-7-6-4-12---------------------| 
a|--------------------------------------------------| 
E|--------------------------------------------------| x2  

e|--------------------------------------------------| 
b|--------------------------------------------------| 
g|--------------------------------------------------| 
d|-8-9-8-7-6-4-1-8-9-8-7-6-4-12-12x8-14x8-----------| 
a|--------------------------------------------------| 
E|--------------------------------------------------|  

e|--------------------------------------------------| 
b|--------------------------------------------------| 
g|--------------------------------------------------| 
d|--------------------------------------------------| 
a|--------------------------------------------------| 
E|-0-0-3-5-5-6-5-5-6-5-3-0-3-0-0-3-5-5-6-5-5-6-10-10|  

Chorus again 
share this page

See Also: