E-Chords
Fit For Rivals

Damage(Tabs)

Fit For Rivals

roll up this ad to continue

Key: C
Tuning: Drop C 



D|-------------------------------------------------------------------------| 
A|-------------------------------------------------------------------------| 
F|-------------------------------------------------------------------------| 
C|--7-7-7-7-7-7-7-10-10-10-10-10-10-10-11-11-11-11-11-11-11-11-------------| 
G|--7-7-7-7-7-7-7-10-10-10-10-10-10-10-9--9.-9.-9.-9.-9.-9.-9.-------------| 
C|--7-7.7.7.7.7.7.10-10.10.10.10.10.10.------------------------------------| 

D|-----------------------------------|-------------------------------------| 
A|-----------------------------------|-------------------------------------| 
F|-----------------------------------|-------------------------------------| 
C|-10-10-10-10-10-10-10-10-10-10--X3-|-9-----------------------------------| 
G|-8.-8.-8.-8.-8.-8.-8.-8--8--8------|-7-----------------------------------| 
C|-----------------------------------|-------------------------------------| 

D|-------------------------------------------------------------------------| 
A|-5------5----10~-5--------------------------------------------5---5---5--| 
F|--7-5----7-5------7-5--------------------------5----5----5---------------| 
C|------7~--------------7-5-7----------x2----7.7.-7.7.-7.7.-7.7.-7.7-7.7---| 
G|---------------------------5-7-------------------------------------------| 
C|------------------------------5-7----------------------------------------| 

D|-------------------------------------------------------------------------| 
A|-----------------------------------------5---5---------------------------| 
F|-----5---5---5---5---5---5---5---5---5-----------5---5---5-5-5-----------| 
C|-7.7.-7.7-7.7-7.7-7.7-7.7-7.7-7.7-7.7-7.7-7.7-7.7-7.7-7.7---7-7----------| 
G|-------------------------------------------------------------------------| 
C|-------------------------------------------------------------------------| 

D|------------12-----------------------12----------------------------------| 
A|--10-12-10----10-13-12-10-9-10-12-10---10-13-12-10--10-12-10-------------| 
F|-------------------------------------------------------------------------| 
C|-------------------------------------------------------------------------| 
G|-------------------------------------------------------------------------| 
C|-------------------------------------------------------------------------| 

D|-12------------------------12---------------8-8887-8-88810---------------| 
A|---10-13-12-10-9-10-12-10----10-13-12-10----x-xxxx-x-xxx-x---------------| 
F|--------------------------------------------5-5554-5-555-7---------------| 
C|-------------------------------------------------------------------------| 
G|-------------------------------------------------------------------------| 
C|-------------------------------------------------------------------------| 

D|-------------------------------------------------------------------------| 
A|-------------------------------------------------------------------------| 
F|-------------------------------------------------------------------------| 
C|-77777777101010101010101012121212121212121212121212121212----X2----------| 
G|-77777777101010101010101012121212121212121212121212121212----------------| 
C|-77777777101010101010101012121212121212121212121212121212----------------| 

D|-------------------------------------------------------------------------| 
A|-------------------------5---5---5---------------------------------------| 
F|----------5----5----5----------------------------------------------------| 
C|------7.7.-7.7.-7.7.-7.7.-7.7-7.7----------------------------------------| 
G|-------------------------------------------------------------------------| 
C|-------------------------------------------------------------------------| 

D|-------------------------------------------------------------------------| 
A|-----------------------------------------5---5---------------------------| 
F|-----5---5---5---5---5---5---5---5---5-----------5---5---5-5-5-----------| 
C|-7.7.-7.7-7.7-7.7-7.7-7.7-7.7-7.7-7.7-7.7-7.7-7.7-7.7-7.7---7-7----------| 
G|-------------------------------------------------------------------------| 
C|-------------------------------------------------------------------------| 

D|------------12-----------------------12----------------------------------| 
A|--10-12-10----10-13-12-10-9-10-12-10---10-13-12-10--10-12-10-------------| 
F|-------------------------------------------------------------------------| 
C|-------------------------------------------------------------------------| 
G|-------------------------------------------------------------------------| 
C|-------------------------------------------------------------------------| 

D|-12------------------------12---------------8-8887-8-88810---------------| 
A|---10-13-12-10-9-10-12-10----10-13-12-10----x-xxxx-x-xxx-x---------------| 
F|--------------------------------------------5-5554-5-555-7---------------| 
C|-------------------------------------------------------------------------| 
G|-------------------------------------------------------------------------| 
C|-------------------------------------------------------------------------| 

D|-------------------------------------------------------------------------| 
A|-------------------------------------------------------------------------| 
F|-------------------------------------------------------------------------| 
C|-77777777101010101010101012121212121212121212121212121212----X4----------| 
G|-77777777101010101010101012121212121212121212121212121212----------------| 
C|-77777777101010101010101012121212121212121212121212121212----------------| 


D|-------------------------------------12121212101010101212121215151515----| 
A|-------------------------------------x-x-x-x-x-x-x-x-x-x-x-x-x-x-x-x--X4-| 
F|-------------------------------------9-9-9-9-7-7-7-7-9-9-9-9-12121212----| 
C|-77777777555555554444444433333333--X2------------------------------------| 
G|-77777777555555554444444433333333----------------------------------------| 
C|-77777777555555554444444433333333----------------------------------------| 

D|-77-77-88-10101212121012-8-8887-8-8887-8-8887----------------------------| 
A|-xx-xx-xx-x-x-x-x-x-x-x--x-xxxx-x-xxxx-x-xxxx----------------------------| 
F|-44-44-55-7-7-9-9-9-7-9--5-5554-5-5554-5-5554----------------------------| 
C|----------------------------------------------------------0--------------| 
G|----------------------------------------------------------0--------------| 
C|-------------------------------------------------------------------------| 

D|-------------------------------------------------------------------------| 
A|-------------------------------------------------------------------------| 
F|-------------------------------------------------------------------------| 
C|-77777777101010101010101012121212121212121212121212121212----X4----------| 
G|-77777777101010101010101012121212121212121212121212121212----------------| 
C|-77777777101010101010101012121212121212121212121212121212----------------| 


D|-------------------------------------------------------------------------| 
A|-------------------------------------------------------------------------| 
F|-12---12---12------------------------------------------------------------| 
C|-12---12---12------------------------------------------------------------| 
G|-10---10---10------------------------------------------------------------| 
C|-------------------------------------------------------------------------| 
share this page

See Also: