E-Chords
Fine Before You Came

A City(Tabs)

Fine Before You Came

Intro 

e|---------------------------------------------------------| 
B|---0-----0-----1---------3p-1-----0-----0---5\--/1---0p--| 
G|-------0-------0----------------------0-----5\--/0-------| 
D|-----2-----2---4--------------4--------------------------| 
A|--------------------------------3---3-----------/0-------| 
E|-0-------------0-------0--------------------5\-----------| 

e|---------------------------------------------------------| 
B|---0-----0-----1--------0--3p-1---0-----0---5\--/1--0p---| 
G|-------0-------0----------------------0-----5\--/0-------| 
D|-----2-----2---4-----------------------------------------| 
A|--------------------------------3---3-----------/0-------| 
E|-0-------------0-----0----------------------5\-----------| 



************************************ 

| p  Pull-off 
| /  Slide up 
| \  Slide down 

************************************ 

roll up this ad to continue

share this page

See Also: