E-Chords
Fanny Crosby

Old Rugged Cross(Tabs)

Fanny Crosby

Key: A
Tuning:Standard  TAB Key of A G Chords  
 Key of A 
  G                       C                             D                     G 
e|-----------------------------------------------------------------------------------| 
B|-----------------------------------------------------------------------------------| 
G|-----------------------------------------------------------------------------------| 
D|-------2---------4-2---2-----2--4---3--6---4-----4---6-----4--2--------------------| 
A|--4--5-------6------------------------------------------------------------5---4----| 
E|-----------------------------------------------------------------------------------| 
` 1.  On a hill far a-way stood an old rugged cross the emblem of suffering and shame. 
 2.  In that old rugged cross, stained with blood so divine a wondrous beauty I see,    
 3.  To that old rugged cross I will ever be true, its shame and reproach gladly bear 

  G                                      C                    D                          G 
e|-------------------------------------------------------------------------------------------| 
B|--------------------------------------------------------------------------3--2-------------| 
G|-----------------------------------------------------------------------------------4----2--| 
D|---------2---------4--2-----2-----2---4-------3--6-----4---4---6---4--2--------------------| 
A|--4--5-------6-----------------------------------------------------------------------------| 
E|-------------------------------------------------------------------------------------------| 
1.  and I love that old cross where the dearest and best for a world of lost sinners was slain. 
2.  for ??twas on that old cross  Jesus suffered  and   died, to   pardon  and  sanctify   me. 
3.  then he??ll call me someday  to my home far away, where his glory  forever  I??ll   share. 

Chorus 
          D       G                      C               G 
e|--------------------------------------------------------------------------------------------| 
B|--------------------------------------------------------------------------------------------| 
G|-----2--4----4--4---4---2-------2------2---------------------2-----------------2------------| 
D|-6--------------------------6---------------6--4-----4--4-------6--4---2----2---------------| 
A|--------------------------------------------------------------------------------------------| 
E|--------------------------------------------------------------------------------------------| 
   So I'll cherish the old rugged cross, till my trophies at last I lay down. I will 

                           C            G               D        G 
e|--------------------------------------------------------------------------------------------| 
B|--2---2--2---2---3--2---------------3--3--2-------------------------------------------------| 
G|------------------------------------------------4--2---------4---2--------------------------| 
D|------------------------4-----------------------------2--6----------------------------------| 
A|--------------------------------------------------------------------------------------------| 
E|--------------------------------------------------------------------------------------------| 
  cling to the old rugged cross, and  exchange it someday for a crown. 




************************************ 

roll up this ad to continue

share this page

See Also: