E-Chords
Famous For A Day

Dead Ends(Tabs)

Famous For A Day

Intro 

e|---------------------------------------------------------------------------| 
B|-11-11-11------------------------------------------------------------------| 
G|----------10-10-10-8h10-10-10-10-8-8-8-8------8h10-------------------------| 
D|-----------------------------------------8h10------------------------------| 
A|---------------------------------------------------------------------------| 
E|---------------------------------------------------------------------------| 

e|---------------------------------------------------------------------------| 
B|-11-11-11------------------------------------------------------------------| 
G|----------10-10-10-10/12-12-12-12-12-12-12-12-12-12------------------------| 
D|---------------------------------------------------------------------------| 
A|---------------------------------------------------------------------------| 
E|---------------------------------------------------------------------------| 

e|---------------------------------------------------------------------------| 
B|-11-11-11------------------------------------------------------------------| 
G|----------10-10-10-8h10-10-10-10-8-8-8-8------8h10-------------------------| 
D|-----------------------------------------8h10------------------------------| 
A|---------------------------------------------------------------------------| 
E|---------------------------------------------------------------------------| 

e|---------------------------------------------------------------------------| 
B|-11-11-11------------------------------------------------------------------| 
G|----------10-10-10-8-8-8-8-8-8-8-------------------------------------------| 
D|---------------------------------------------------------------------------| 
A|---------------------------------------------------------------------------| 
E|---------------------------------------------------------------------------| 

Break 
Intro 2 

e|-------------------------------------------------------10-11-10---------------------------------| 
B|-11-11-11--------------------------------------------11---------11---------------11-13-11-------| 
G|----------10-10-10-8h10-10-10-10-8-8-8-8------8h10/12--------------12-10-8-10-12----------12-10-| 
D|-----------------------------------------8h10---------------------------------------------------| 
A|------------------------------------------------------------------------------------------------| 
E|------------------------------------------------------------------------------------------------| 

e|---------------------------------------------------------------------------| 
B|-11-11-11------------------------------------------------------------------| 
G|----------10-10-10-8h10-10-10-10-8-8-8-8------8h10-7------7------7h8-------| 
D|-----------------------------------------8h10------8--8-8-8--8-8-8---------| 
A|------------------------------------------------------.-.----.-.-----------| 
E|---------------------------------------------------------------------------| 

verse 1 

e|-/3~---------------------------------Tap-harmonics-------------------------| 
B|-----4~-------------------3~--3---3h4~---16~-------------------------------| 
G|--------/5TR6TR5-3~---3-3---3---3----------15~-----------------------------| 
D|-----------------------.-.---.---.-----------------------------------------| 
A|---------------------------------------------------------------------------| 
E|---------------------------------------------------------------------------| 

e|-6/8-------6h8-t11/13\11p8p6-----------------------------------------------| 
B|-----6/4-4------------------h8p6\4h6/8-t11p8p6\4---------------------------| 
G|---------------------------------------------------------------------------| 
D|---------------------------------------------------------------------------| 
A|---------------------------------------------------------------------------| 
E|---------------------------------------------------------------------------| 
                         
e|-/3~-----------------------------------------------------------------------| 
B|-----4~-------------------3~--3---3h4~-4---4~------------------------------| 
G|--------/5TR6TR5-3~---3-3---3---3--------3---------------------------------| 
D|-----------------------.-.---.---.-------.---------------------------------| 
A|---------------------------------------------------------------------------| 
E|---------------------------------------------------------------------------| 

e|-6/8-----------------------------------------------------------------------| 
B|-----6/4-4-6/8-8p6\4-4/6---------------------------------------------------| 
G|---------------------------------------------------------------------------| 
D|---------------------------------------------------------------------------| 
A|---------------------------------------------------------------------------| 
E|---------------------------------------------------------------------------| 


Chorus x2 (All tapped, no pick) 

e|---------------------------------------------------------------------------| 
B|---------------------------------------------------------------------------| 
G|----------------------------t15p-10h12-t13p-12p10h12-----------------------| 
D|-t10h13-t15/17\15p-13p10h13--------------------------t13p------------------| 
A|---------------------------------------------------------------------------| 
E|---------------------------------------------------------------------------| 

e|---------------------------------------------------------------------------| 
B|---------------------------------------------------------------------------| 
G|---------------------------------------------------------------------------| 
D|-10h13-t15/17\15p-13p10h13-t18\17\15p-13-t15/17\15p 13---------------------| 
A|---------------------------------------------------------------------------| 
E|---------------------------------------------------------------------------| 

e|---------------------------------------------------------------------------| 
B|---------------------------------------------------------------------------| 
G|----------------------------t15p-10h12-t13p-12p10h12-----------------------| 
D|-t10h13-t15/17\15p-13p10h13--------------------------t13p------------------| 
A|---------------------------------------------------------------------------| 
E|---------------------------------------------------------------------------| 

e|---------------------------------------------------------------------------| 
B|---------------------------------------------------------------------------| 
G|---------------------------------------------------------------------------| 
D|-10h13-t15/17\15p-13p10h13~~~----------------------------------------------| 
A|---------------------------------------------------------------------------| 
E|---------------------------------------------------------------------------| 


verse 2 

e|-/3~---------------------------------Tap-harmonics-------------------------| 
B|-----4~-------------------3~--3---3h4~---16~-------------------------------| 
G|--------/5TR6TR5-3~---3-3---3---3----------15~-----------------------------| 
D|-----------------------.-.---.---.-----------------------------------------| 
A|---------------------------------------------------------------------------| 
E|---------------------------------------------------------------------------| 

e|-6/8-------6h8-t11/13\11p8p6-----------------------------------------------| 
B|-----6/4-4------------------h8p6\4h6/8-t11p8p6\4---------------------------| 
G|---------------------------------------------------------------------------| 
D|---------------------------------------------------------------------------| 
A|---------------------------------------------------------------------------| 
E|---------------------------------------------------------------------------| 
                         
e|-/3~-----------------------------------------------------------------------| 
B|-----4~-------------------3~--3---3h4~-4---4~------------------------------| 
G|--------/5TR6TR5-3~---3-3---3---3--------3---------------------------------| 
D|-----------------------.-.---.---.-------.---------------------------------| 
A|---------------------------------------------------------------------------| 
E|---------------------------------------------------------------------------| 

e|-6/8-----------------------------------------------------------------------| 
B|-----6/4-4-6/8-8p6\4-4/6---------------------------------------------------| 
G|---------------------------------------------------------------------------| 
D|---------------------------------------------------------------------------| 
A|---------------------------------------------------------------------------| 
E|---------------------------------------------------------------------------| 


Chorus x2 (All tapped, no pick) 


e|---------------------------------------------------------------------------| 
B|---------------------------------------------------------------------------| 
G|----------------------------t15p-10h12-t13p-12p10h12-----------------------| 
D|-t10h13-t15/17\15p-13p10h13--------------------------t13p------------------| 
A|---------------------------------------------------------------------------| 
E|---------------------------------------------------------------------------| 

e|---------------------------------------------------------------------------| 
B|---------------------------------------------------------------------------| 
G|---------------------------------------------------------------------------| 
D|-10h13-t15/17\15p-13p10h13-t18\17\15p-13-t15/17\15p 13---------------------| 
A|---------------------------------------------------------------------------| 
E|---------------------------------------------------------------------------| 

e|---------------------------------------------------------------------------| 
B|---------------------------------------------------------------------------| 
G|----------------------------t15p-10h12-t13p-12p10h12-----------------------| 
D|-t10h13-t15/17\15p-13p10h13--------------------------t13p------------------| 
A|---------------------------------------------------------------------------| 
E|---------------------------------------------------------------------------| 

e|---------------------------------------------------------------------------| 
B|-----------------------(16)-Variation--------------------------------------| 
G|---------------------------------------------------------------------------| 
D|-10h13-t15/17\15p-13p10h13~~~----------------------------------------------| 
A|---------------------------------------------------------------------------| 
E|---------------------------------------------------------------------------| 


Bridge x2 

e|---------------------------------------------------------------------------| 
B|---------------------------------------------------------------------------| 
G|-8-----8-----8-8---8-----8/10-10-8-----8-----8/12---12-----12\10-----------| 
D|-x-----x-----x-x---x-----x-x--x--x-----x-----x-x----x------x--x------------| 
A|-6-x-x-6-x-x-6-6-x-6-x-x-6/8--8--6-x-x-6-x-x-6/10-x-10-x-x-10\8------------| 
E|---------------------------------------------------------------------------| 

e|---------------------------------------------------------------------------| 
B|---------------------------------------------------------------------------| 
G|-8-----8-----8-8---8-----8/10-10-13-13-13\12-12-12-10-10/12\8------------------| 
D|-x-----x-----x-x---x-----x-x--x--x--x--x--x--x--x--x---------------------------| 
A|-6-x-x-6-x-x-6-6-x-6-x-x-6/8--8--11-11-11\10-10-10-8---8/10\6------------------| 
E|---------------------------------------------------------------------------| 


Chorus 

e|---------------------------------------------------------------------------| 
B|---------------------------------------------------------------------------| 
G|----------------------------t15p-10h12-t13p-12p10h12-----------------------| 
D|-t10h13-t15/17\15p-13p10h13--------------------------t13p------------------| 
A|---------------------------------------------------------------------------| 
E|---------------------------------------------------------------------------| 

e|---------------------------------------------------------------------------| 
B|---------------------------------------------------------------------------| 
G|---------------------------------------------------------------------------| 
D|-10h13-t15/17\15p-13p10h13-t18\17\15p-13-t15/17\15p 13---------------------| 
A|---------------------------------------------------------------------------| 
E|---------------------------------------------------------------------------| 

e|---------------------------------------------------------------------------| 
B|---------------------------------------------------------------------------| 
G|----------------------------t15p-10h12-t13p-12p10h12-----------------------| 
D|-t10h13-t15/17\15p-13p10h13--------------------------t13p------------------| 
A|---------------------------------------------------------------------------| 
E|---------------------------------------------------------------------------| 

e|---------------------------------------------------------------------------| 
B|-----------------------(16b18r16)-Variation--------------------------------| 
G|---------------------------------------------------------------------------| 
D|-10h13-t15/17\15p-13p10h13~~~----------------------------------------------| 
A|---------------------------------------------------------------------------| 
E|---------------------------------------------------------------------------| 

Outro 

e|-------------------------------------------------------10-11-10---------------------------------| 
B|-11-11-11--------------------------------------------11---------11---------------11-13-11-------| 
G|----------10-10-10-8h10-10-10-10-8-8-8-8------8h10/12--------------12-10-8-10-12----------12-10-| 
D|-----------------------------------------8h10---------------------------------------------------| 
A|------------------------------------------------------------------------------------------------| 
E|------------------------------------------------------------------------------------------------| 

e|---------------------------------------------------------------------------| 
B|-11-11-11--------------------------------------------11--------------------| 
G|----------10-10-10-8h10-10-10-10-8-8-8-8------8h10/12--12-10-8-10-8--------| 
D|-----------------------------------------8h10------------------------------| 
A|---------------------------------------------------------------------------| 
E|---------------------------------------------------------------------------| 



************************************ 

| h    Hammer-on 
| /    Slide up 
| ~    Vibrato 
| p    Pull-off 
| t    Tapping 
| \    Slide down 
| (n)  Ghost note 
| x    Dead note 
| r    Release 
| b    Bend 
| TR    
Trill 

************************************ 

roll up this ad to continue

share this page

See Also: