E-Chords
Faith no More

Surprise(Tabs)

Faith no More

roll up this ad to continue

 
                      FAITH NO MORE:                          recorded in 1988 
                   SURPRISE! YOU'RE DEAD! 
                    / THE REAL THING / 
 
E-|-----------------|--------------------| 
B-|-----------------|--------------------| 
G-|-----------------|--------------------| 
D-|-----------------|--------------------| 
A-|-2---2---2---2---|4-4-4-4---5-5-5-5---| 
E-|-0---0---0---0---|2-2-2-2---3-3-3-3---| 
 
E-|-------------------------|------------------------| 
B-|-------------------------|------------------------| 
G-|-------------------------|------------------------| 
D-|-------------------------|------------------------| 
A-|-------------------7-----|------------------7-----| 
E-|-7-0-0-6-0-8-7-00007-0-0-|7-0-0-6-0-8-7-0-0-7-0-0-| 
 
E-|-------------------------|------------------------| 
B-|-------------------------|------------------------| 
G-|-------------------------|------------------------| 
D-|-------------------------|--------------8---8---8-| 
A-|-------------------7-----|--------------8---8---8-| 
E-|-7-0-0-6-0-8-7-0-0-7-0-0-|7-0-0-6-0-8-7-6-0-6-0-6-| 
 
E-|-------------------------|------------------------| 
B-|-------------------------|------------------------| 
G-|-------------------------|------------------------| 
D-|-------------------------|------------------------| 
A-|-------------------------|------------------7-----| 
E-|-7-0-0-6-0-8-7-000000000-|7-0-0-6-0-8-7-0-0-7-0-0-| 
 
E-|-------------------------|------------------------| 
B-|-------------------------|------------------------| 
G-|-------------------------|------5-7-7-------7-8-8-| 
D-|-------------------------|5-7-7-5-7-7-7-9-9-7-8-8-| 
A-|-------------------7-----|5-7-7-------7-9-9-------| 
E-|-7-0-0-6-0-8-7-0-0-7-0-0-|------------------------| 
 
E-|-------------------------|------|------|-------------------------| 
B-|-------------------------|------|------|-------------------------| 
G-|-------------------------|--0/--|--0/--|-------------------------| 
D-|-------------------------|--/0--|--/0--|---------------8---8---8-| 
A-|-------------------7-----|------|------|---------------8---8---8-| 
E-|-7-0-0-6-0-8-7-0-0-7-0-0-|------|------|-7-0-0-6-0-8-7-6-0-6-0-6-| 
 
E-|-------------------------|------|------|-------------------------| 
B-|-------------------------|------|------|-------------------------| 
G-|-------------------------|--0/--|--0/--|-------5-7-7-------7-8-8-| 
D-|-------------------------|--/0--|--/0--|-5-7-7-5-7-7-7-9-9-7-8-8-| 
A-|-------------------7-----|------|------|-5-7-7-------7-9-9-------| 
E-|-7-0-0-6-0-8-7-0-0-7-0-0-|------|------|-------------------------| 
 
E-|-----------------|-----------------|-----------------|-----------------| 
B-|-----------------|-----------------|-----------------|-----------------| 
G-|-----------------|-----------------|-----------------|-----------------| 
D-|-9-----9---9-----|-10----10--7---9-|-----------------|-7-----7---7-----| 
A-|-7-----7---7-----|-8-----8---5---7-|-----------------|-8-----8---8-----| 
E-|-----0---0---0-0-|---0-0---0---0---|-0-0-0-0-0-0-0-0-|---0-0---0---0-0-| 
 
E-|-----------------|-----------------|-----------------|-----------------| 
B-|-----------------|-----------------|-----------------|-----------------| 
G-|-----------------|-----------------|-----------------|-----------------| 
D-|-6---------------|-10----10--7---9-|-----------------|-7-----7---7---7-| 
A-|-7---------------|-8-----8---5---7-|-----------------|-8-----8---8---8-| 
E-|---0-0-0-0-0-0-0-|---0-0---0---0---|-0-0-0-0-0-0-0-0-|---0-0---0---0---| 
 
E-|-----------------|-----------------|-----------------|-----------------| 
B-|-----------------|-----------------|-----------------|-----------------| 
G-|-----------------|-----------------|-----------------|-----------------| 
D-|-6-----9---9-----|-10----10--7---9-|-----------------|-7-----7---7-----| 
A-|-7-----7---7-----|-8-----8---5---7-|-----------------|-8-----8---8-----| 
E-|---0-0---0---0-0-|---0-0---0---0---|-0-0-0-0-0-0-0-0-|---0-0---0---0-0-| 
 
E-|-----------------|-----------------|-----------------|-----------------| 
B-|-----------------|-----------------|-----------------|-----------------| 
G-|-----------------|-----------------|-----------------|-----------------| 
D-|-6---------------|-10----10--7---9-|-----------------|-7-----7---7-----| 
A-|-7---------------|-8-----8---5---7-|-----------------|-8-----8---8-----| 
E-|---0-0-0-0-0-0-0-|---0-0---0---0---|-0-0-0-0-0-0-0-0-|---0-0---0---0-0-| 
 
E-|-------------------------|------|------|-------------------------| 
B-|-------------------------|------|------|-------------------------| 
G-|-------------------------|--0/--|--0/--|-------------------------| 
D-|-------------------------|--/0--|--/0--|---------------8---8---8-| 
A-|-------------------7-----|------|------|---------------8---8---8-| 
E-|-7-0-0-6-0-8-7-0-0-7-0-0-|------|------|-7-0-0-6-0-8-7-6-0-6-0-6-| 
 
E-|-------------------------|------|------|-------------------------| 
B-|-------------------------|------|------|-------------------------| 
G-|-------------------------|--0/--|--0/--|-------5-7-7-------7-8-8-| 
D-|-------------------------|--/0--|--/0--|-5-7-7-5-7-7-7-9-9-7-8-8-| 
A-|-------------------7-----|------|------|-5-7-7-------7-9-9-------| 
E-|-7-0-0-6-0-8-7-0-0-7-0-0-|------|------|-------------------------| 
 
E-|-----------------|-----------------|-----------------|-----------------| 
B-|-----------------|-----------------|-----------------|-----------------| 
G-|-----------------|-----------------|-----------------|-----------------| 
D-|-9-----9---9-----|-10----10--7---9-|-----------------|-7-----7---7-----| 
A-|-7-----7---7-----|-8-----8---5---7-|-----------------|-8-----8---8-----| 
E-|-----0---0---0-0-|---0-0---0---0---|-0-0-0-0-0-0-0-0-|---0-0---0---0-0-| 
 
E-|-----------------|-----------------|-----------------|-----------------| 
B-|-----------------|-----------------|-----------------|-----------------| 
G-|-----------------|-----------------|-----------------|-----------------| 
D-|-6---------------|-10----10--7---9-|-----------------|-7-----7---7---7-| 
A-|-7---------------|-8-----8---5---7-|-----------------|-8-----8---8---8-| 
E-|---0-0-0-0-0-0-0-|---0-0---0---0---|-0-0-0-0-0-0-0-0-|---0-0---0---0---| 
 
E-|-----------------|-----------------|-----------------|-----------------| 
B-|-----------------|-----------------|-----------------|-----------------| 
G-|-----------------|-----------------|-----------------|-----------------| 
D-|-6-----9---9-----|-10----10--7---9-|-----------------|-7-----7---7-----| 
A-|-7-----7---7-----|-8-----8---5---7-|-----------------|-8-----8---8-----| 
E-|---0-0---0---0-0-|---0-0---0---0---|-0-0-0-0-0-0-0-0-|---0-0---0---0-0-| 
 
E-|-----------------|-----------------|-----------------|-----------------| 
B-|-----------------|-----------------|-----------------|-----------------| 
G-|-----------------|-----------------|-----------------|-----------------| 
D-|-6---------------|-10----10--7---9-|-----------------|-7-----7---7-----| 
A-|-7---------------|-8-----8---5---7-|-----------------|-8-----8---8-----| 
E-|---0-0-0-0-0-0-0-|---0-0---0---0---|-0-0-0-0-0-0-0-0-|---0-0---0---0-0-| 
 
E-|-------|-------------|---------|------------|---------------| 
B-|-------|-------------|---------|------------|---------------| 
G-|-------|-------------|---------|------------|---------------| 
D-|-------|-------------|---------|------------|---------------| 
A-|-0-000-|-000-000-000-|8-7-10-9-|000-000-000-|8-7-10-9-12-11-| 
E-|-------|-------------|---------|------------|---------------| 
 
E-|-------|-------|-------| 
B-|-------|-------|-------| 
G-|-0////-|-0////-|-0////-| 
D-|-////0-|-////0-|-////0-| 
A-|-------|-------|-------| 
E-|-------|-------|-------| 
 
E-|-----------|----------------|----------|------------------| 
B-|-----------|----------------|----------|------------------| 
G-|-----------|----------------|----------|------------------| 
D-|-----4---5-|----4---7---8-7-|----4---5-|----4---5---8---7-| 
A-|-2---2---3-|----2---5---6-5-|----2---3-|----2---3---6---5-| 
E-|-0---------|0-0-------------|0-0-------|0-0---------------| 
 
E-|-------------|----------------|------------|------------| 
B-|-------------|----------------|------------|------------| 
G-|-------------|----------------|------------|------------| 
D-|-------------|----------------|------------|------------| 
A-|-----5---6---|----5---6---9-8-|----7---8---|----7---8---| 
E-|-3-3---------|3-3-------------|5-5---------|5-5---------| 
 
E-|---------------|----------------------| 
B-|---------------|----------------------| 
G-|---------------|----------------------| 
D-|-6-5---5---7---|----------------------| 
A-|-----7---6-----|5---6---2-1-0---------| 
E-|---------------|--------------4-3-2-1-| 
 
E-|-------------------------|------------------------| 
B-|-------------------------|------------------------| 
G-|-------------------------|------------------------| 
D-|-------------------------|------------------------| 
A-|-2-----------------7-----|------------------7-----| 
E-|---0-0-6-0-8-7-0-0-7-0-0-|7-0-0-6-0-8-7-000-7-0-0-| 
 
E-|-------------------------|------------------------| 
B-|-------------------------|------------------------| 
G-|-------------------------|------------------------| 
D-|-------------------------|--------------8---8---8-| 
A-|-------------------7-----|--------------8---8---8-| 
E-|-7-0-0-6-0-8-7-0-0-7-0-0-|7-0-0-6-0-8-7-6-0-6-0-6-| 
 
E-|-------------------------|------|------|------------------------|------|---| 
B-|-------------------------|------|------|------------------------|------|---| 
G-|-------------------------|--0/--|--0/--|------5-7-7-------7-8-8-|--0/--|---| 
D-|-------------------------|--/0--|--/0--|5-7-7-5-7-7-7-9-9-7-8-8-|--/0--|---| 
A-|-------------------7-----|------|------|5-7-7-------7-9-9-------|------|-7-| 
E-|-7-0-0-6-0-8-7-0-0-7-0-0-|------|------|------------------------|------|-7-| 
tabbed by [email protected] 
 
coming soon this one:                                          version 0.0/alfa 
E-|-------------|------|------|------|-------|--------------------------------| 
B-|-------------|------|------|------|-------|--------------------------------| 
G-|-------0-----|--0/--|--0/--|--0/--|-0////-|--------------------------------| 
D-|-----4---4---|--/0--|--/0--|--/0--|-////0-|--------------------------------| 
A-|---2-------0-|------|------|------|-------|--------------------------------| 
E-|-0-----------|------|------|------|-------|--------------------------------| 
                                                                                
                                                                                
E-|-----0-----------2-----------3-----------3---|-----------------------------| 
B-|---0---0---0---0---0-------0---0---0---0---0-|-----------------------------| 
G-|---------0-----------0-----------0-----------|-----------------------------| 
D-|-2-----------4---------4-2-----------2-------|-----------------------------| 
A-|---------------------------------------------|-----------------------------| 
E-|---------------------------------------------|-----------------------------| 
                                                                                
                                                                                
E-|-------------|------|------|------|----------------------------------------| 
B-|---------3---|------|------|------|----------------------------------------| 
G-|---0---0---0-|--0/--|--0/--|--0/--|----------------------------------------| 
D-|-0-----------|--/0--|--/0--|--/0--|----------------------------------------| 
A-|-----2-------|------|------|------|----------------------------------------| 
E-|-------------|------|------|------|----------------------------------------| 
                                                                                
                                                                                
E-|-7-------7---|5-------5---|-3-------3---|3-------|-------------------------| 
B-|---8---8---8-|--7---7---7-|---5---5---5-|--5---5-|-------------------------| 
G-|-----9-------|----7-------|-----4-------|----4---|-------------------------| 
D-|-------------|------------|-------------|--------|-------------------------| 
A-|-------------|------------|-------------|--------|-------------------------| 
E-|-------------|------------|-------------|--------|-------------------------| 
                                                                                
                                                                                
E-|-3-------------------2-----------------------------------------------------| 
B-|-3-------------------3-----------------------------------------------------| 
G-|-0-------------------0-----------------------------------------------------| 
D-|---------------------------------------------------------------------------| 
A-|---------------------------------------------------------------------------| 
E-|---------------------------------------------------------------------------| 
                                                                                
                                                                                
E-|-------------|----------|----------|----------|--------------7-8-108-7-----| 
B-|-------------|----------|----------|----------|--------7-8-10---------10-87| 
G-|-------0-----|----0-----|----0-----|----0-----|----0-------------4---------| 
D-|-----9---9---|--9---9---|--7---7---|--7---7---|--7---7-----4-5-7---7-5-4---| 
A-|-7-7-------7-|7-------7-|5-------5-|5-------5-|5-------5-7---------------75| 
E-|-------------|----------|----------|----------|----------------------------| 
                                                                                
                                                                                
E-|---------------------------------------------------------------------------| 
B-|---------------------------------------------------------------------------| 
G-|----0-----0-----2-----2----------------------------------------------------| 
D-|---4-4---4-4---4-4---3-3---------------------------------------------------| 
A-|--2---2-2---2-2---2-3---3--------------------------------------------------| 
E-|-0-----3-----2-----1-------------------------------------------------------| 
                                                                                
                                                                                
E-|----0-----0-----0-----0-----0-----0----------------------------------------| 
B-|---0-0---0-0---0-0---0-0---0-0---0-0---------------------------------------| 
G-|--5---5-5---5-5---5-5---5-5---5-5---5-----5-4-2h4p2-0----------------------| 
D-|-7-----6-----5-----4-----3-----3----------3-3-3-----2----------------------| 
A-|------------------------------------------3-2-0-----2----------------------| 
E-|------------------------------------------1-1-1-----0----------------------| 
                                                                                
                                                                                
E-|---------------------------------------------------------------------------| 
B-|---------------------------------------------------------------------------| 
G-|---------------------------------------------------------------------------| 
D-|---------------------------------------------------------------------------| 
A-|---------------------------------------------------------------------------| 
E-|---------------------------------------------------------------------------| 
share this page

See Also: