E-Chords
Faith no More

Naked In Front Of The Computer(Tabs)

Faith no More

roll up this ad to continue

Key: D
FAITH NO MORE 
NAKED IN FRONT OF THE COMPUTER 
 
Drop D tuning (DAdGBE) 
 
Legenda: 
+ - mute ringing string 
p - pull off 
h - hammer on 
bx- bend to x 
~ - vibrato 
 
INTRO 
D-|..1-|--1-1-1-2-2-2-2-3-3-3-4-4-4-5---|--5-5-5-4-4-4-4-3-3-3-2-2-2-0---| 
 
d-|--------------------------------|--5-5-5-8-8-8-8-4-4-4-7-7-7-7---| 
A-|--------------------------------|--5-5-5-8-8-8-8-4-4-4-7-7-7-7---| 
D-|1-1-1-1-2-2-2-2-3-3-3-4-4-4-5---|--5-5-5-8-8-8-8-4-4-4-7-7-7-7---| 
 
MAIN RIFF 
d-|1---1-1-2-2-2-2-3-3-3-4-4-4-5---|--5-5-5-4-4-4-4-3-3-3-2-2-2-0---| 
A-|1---1-1-2-2-2-2-3-3-3-4-4-4-5---|--5-5-5-4-4-4-4-3-3-3-2-2-2-0---| 
D-|1---1-1-2-2-2-2-3-3-3-4-4-4-5---|--5-5-5-4-4-4-4-3-3-3-2-2-2-0---| 
 
 
d-|1-1-1-1-2-2-2-2-3-3-3-4-4-4-5---|--5-5-5-8-8-8-8-4-4-4-7-7-7-7---| 
A-|1-1-1-1-2-2-2-2-3-3-3-4-4-4-5---|--5-5-5-8-8-8-8-4-4-4-7-7-7-7---| 
D-|1-1-1-1-2-2-2-2-3-3-3-4-4-4-5---|--5-5-5-8-8-8-8-4-4-4-7-7-7-7---| 
 
VERSE 
   (Double time feel) 
G-|----------------2h3-+-----------||-----------------2h3-+-----------||--------6-------| 
d-|1---+-----4-4p2-2h3-+-0-+---1-1-||+----------4-4p2-2h3-+-0-+---1-1-||+-------6-2-----| 
A-|1---+-----4-4p2-------0-+---1-1-||+----------4-4p2-------0-+---1-1-||+-------4-2-----| 
D-|1---+-----4-4p2-------0-+---1-1-||+----------4-4p2-------0-+---1-1-||+---------2-----| 
                                     repeat this bar 7 times            
 
CHORUS 
G-|6-6-+-6-+-------6-6-+-6-+-------|----|8-8-+-8-+-------8-8-+-8-+-------|----| 
d-|6-6-+-6-+-2-----6-6-+-6-+-2-----|-*/-|8-8-+-8-+-4-----8-8-+-8-+-4-----|-*/-| 
A-|4-4-+-4-+-2-----4-4-+-4-+-2-----|-/*-|6-6-+-6-+-4-----6-6-+-6-+-4-----|-/*-| 
D-|----------2---------------2-----|----|----------4---------------4-----|----| 
 
2nd guitar: 
E-|9-9-9-9-9-9-9-9-9-9-9-9-9-9-9-9-|-*/-|11-11-11-11-11-11-11-11-11-11-11-11-11-11-11-11-|-*/-| 
B-|8b9-9-9-9-9-9-9-9-9-9-9-9-9-9-9-|-/*-|10b11-11-11-11-11-11-11-11-11-11-11-11-11-11-11-|-/*-| 
   (hold bend______________________)     (hold bend______________________________________)    
 
Solo: 
   ~~~~~~~~~~~~~~~~~~~~~~~~~~~~~~~~~~~~~~~~~~~~~~~~~~~~~~~~~~~~~~~~~~~~~~~~~~~~~~~~~~~~~~~~~~~~~~~~~ 
G-|13-13-13-13-12-12-12-11-11-11-11-11-11-11-11-11-|11-11-11-11-11-11-11-11-11-11-11-11-11-11-11-11-| 
   (brilliant huh?) 
 
END 
 
d-|1-+-||| 
A-|1-+-||| 
D-|1-+-||| 
 
Enjoy 
--Tjrd 
 
share this page

See Also: