E-Chords
Faith no More

Get Out(Tabs)

Faith no More

roll up this ad to continue

Get Out 
------- 
Transcribed by : Lanex13 
 
(Not completed, but close enough! :) 
 
These are the first riffs from the song. 
Actually there are not much more riff in the song. 
 
|-----|----------------------|----|---------------------|----| 
|-----|----------------------|----|---------------------|----| 
|-----|-------------3--------|-0/-|-------------3-------|-0/-| 
|-6\--|-----4-----------2----|-/0-|-----4-----------2---|-/0-| 
|-4\--|-------3---4----------|----|-------3-0-4---------|----| 
|-4\0-|-0-5-----0------------| 2X |-0-5-----------------| 2X | 
 
|---------------------------------|----|-------------------| 
|---------------------------------|----|-------------------| 
|-------------6-------6-------6---|-0/-|-------------------| 
|-2-2-5-6-----5-------5-------5---|-/0-|-2-2-5-6-<<<-5---4-| 
|-0-0-3-4---4-4---4-4-4---4-4-4---|----|-0-0-3-4-<<<-5---4-| 
|---------------------------------| 2X |-------------3---2-| 
 
|---------------------------------------------------------------------------| 
|---------------------------------------------------------------------------| 
|---------------------------------------------------------------------------| 
|-4---4-4-4-4-4-4-4-4-4-4-4-4-4-4---5-5-5-----4-----------------------------| 
|-4---4-4-4-4-4-4-4-4-4-4-4-4-4-4---4-4-4-------4-4-4-4-4-4-4-4-4-4-4-4-4-4-| 
|-2---2-2-2-2-2-2-2-2-2-2-2-2-2-2-0-3-3-3-2-----2-2-2-2-2-2-2-2-2-2-2-2-2-2-| 
            *       *       *                       *       *       * 
 
|------------------------------------------------------------| 
|------------------------------------------------------------| 
|------------------------------------------------------------| 
|-5-5-5-4---4-4-4-4-4-4-4-4-4-4-4-4-4-4---5-5-5-4---x-2-6\---| 
|-5-5-5-4---4-4-4-4-4-4-4-4-4-4-4-4-4-4---4-4-4-4---x---4\---| 
|-3-3-3-2---2-2-2-2-2-2-2-2-2-2-2-2-2-2-0-3-3-3-2-------4\0--| 
                  *       *       * 
 
* : it's an auxiliary rythmical-sign for  
 
0/ 
/0 : repeat 
 
share this page

See Also: