E-Chords
Faith no More

Crack Hitler(Tabs)

Faith no More

roll up this ad to continue

Key: Em
FAITH NO MORE 
CRACK HITLER 
 
Intro riff (w/ wahwah): 
 
G-|----X-X-----XXX-| (Mute strings 
D-|----------------|  w/ left hand 
A-|X-X----X-XXX---X|  somewhere near 
E-|----------------|  4th fret) 
 
Main riff (w/ wahwah): 
 
N.C. (Em) 
 
D-|----5--5-5--5-7-|9---5--5-5--5---| 
A-|7-7---7---7-----|--7---7---7---7-| 
E-|----------------|----------------| 
 
N.C. (F#m) 
 
D-|----5--5-5-/7-9-| 
A-|9-9---7----7----| 
E-|----------------| 
 
Chorus: 
(12/8 time) 
 
   B5                 A5     B5                 A5 
         Hey!   Hey!  Hey!   Hey!  Hey!   Hey!  Hey! 
G-|4-----------|------2--2--|4-----------|------2--2--| 
D-|4-----------|------2--2--|4-----------|------2--2--| 
A-|2-----------|------0--0--|2-----------|------0--0--| 
E-|------------|------------|------------|------------| 
 
   C5                 A5     C5                 D5 
   Hey!  Hey!   Hey!  Hey!   Hey!  Hey!   Hey!  Hey! 
G-|5-----------|------2--2--|5-----------|------7--7--| 
D-|5-----------|------2--2--|5-----------|------7--7--| 
A-|3-----------|------0--0--|3-----------|------5--5--| 
E-|------------|------------|------------|------------| 
 
With this you should be able to play the whole song till end. 
 
Enjoy 
--Tjrd 
 
share this page

See Also: