E-Chords
Faith no More

Ashes To Ashes(Tabs)

Faith no More

roll up this ad to continue

TABBED BY:   el sancco ([email protected]) 
 
No one had tabbed this song so i just quickly typed this up, note that this song is  
in drop-d.  Also, if you want to steal this tab and claim credit for it, at least  
tell me before hand. Appreciated. 
 
 
INTRO: 
------ 
 
E|-------------------| 
B|-------------------| 
G|-------------------| 
D|-------------------| 
A|------3br-----5br--| 
D|--0-0-------0------| 
 
 
 
VERSE: 
------ 
 
E|-----------------| 
B|-----------------| 
G|--7-7-7---7-7-7--| 
D|-----------------| 
A|--------5--------| 
D|-----------------| 
 
 
 
PRE-CHORUS: 
----------- 
 
E|-------------------| 
B|-------------------| 
G|-------------------| 
D|-------------------| 
A|------3br-----5br--| 
D|--0-0-------0------| 
 
 
 
CHORUS: 
------- 
 
E|-----------------------------------| 
B|-----------------------------------| 
G|-----------------------------------| 
D|--3-3-3-3-3-3-3-3-3-3-3-3-3-3-3-3--| 
A|--3-3-3-3-3-3-3-3-3-3-3-3-3-3-3-3--| 
D|--3-3-3-3-3-3-3-3-3-3-3-3-3-3-3-3--| 
 
E|---------------------------------------------------| 
B|---------------------------------------------------| 
G|---------------------------------------------------| 
D|--10-10-10-10-10-10-10-10-10-10-10-10-10-10-10-10--| 
A|--10-10-10-10-10-10-10-10-10-10-10-10-10-10-10-10--| 
D|--10-10-10-10-10-10-10-10-10-10-10-10-10-10-10-10--| 
 
E|-----------------------------------| 
B|-----------------------------------| 
G|-----------------------------------| 
D|--3-3-3-3-3-3-3-3-3-3-3-3-3-3-3-3--| 
A|--3-3-3-3-3-3-3-3-3-3-3-3-3-3-3-3--| 
D|--3-3-3-3-3-3-3-3-3-3-3-3-3-3-3-3--| 
 
E|-------------------------------------| 
B|-------------------------------------| 
G|-------------------------------------| 
D|--8-8-8-8-8-8-8-8-8-8-8-8--10-10-10--| 
A|--8-8-8-8-8-8-8-8-8-8-8-8--10-10-10--| 
D|--8-8-8-8-8-8-8-8-8-8-8-8--10-10-10--| 
 
 
 
POST-CHORUS: 
------------ 
 
E|------------------| 
B|------------------| 
G|------------------| 
D|--0-0-3-0-3-12/0--| 
A|--0-0-3-0-3-12/0--| 
D|--0-0-3-0-3-12/0--| 
 
 
 
SOLO: 
----- 
 
E|--12--10---------------------------------------------------------| 
B|----------10~-----13b15---13-------------------------------------| 
G|------------------------------10~----------9---(9)b10------------| 
D|-----------------------------------------------------------------| 
A|-----------------------------------------------------------------| 
D|-----------------------------------------------------------------| 
 
E|-----------------------------------------------------------------| 
B|--11--10---------------------------------------------------------| 
G|----------7-----------10b12----10----------9-----/17-------------| 
D|------------------10---------------8~----------------------------| 
A|-----------------------------------------------------------------| 
D|-----------------------------------------------------------------| 
 
 
 
 
--------------------------------------------- 
Transcribed By SANCCO ([email protected]) 
--------------------------------------------- 
 
share this page

See Also: