E-Chords
Faith no More

As The Worm Turns(Tabs)

Faith no More

roll up this ad to continue

As the worm turns 
Faith no more 
 
Standard tuning 
 
Intro and chorus ( 4 times) 
--------------------------------------------------------------------------------------------------------------------------------------------------------------------------t12- 8p5h8--t13 8p5h8---t12-8p5h8-t13-8p5h8--------------------------------------------------------------------------------------------------------------------------------------------------------------------------------------------------------------------------------------------------------------------------------------------------------- 
 
then the guitar... 
 
------------------------------------------------------------------------------------- 
------------------------------------------------------------------------------------ 
------------------------------------------------------------------------------------- 
---10-10-10-10--10-10-10-10-----5-5-5-5- 5-5-5-5------------------------------------- 
-- 10-10-10-10--10-10-10-10-----5-5-5-5--5-5-5-5------------------------------------- 
----8--8--8--8-----8--8--8--8---3-3-3-3--3-3-3-3--------------------------------- 
 
 
------------------------------------------------------------------------------------- 
------------------------------------------------------------------------------------- 
------------------------------------------------------------------------------------- 
------------------------------------------------------------------------------------- 
-10-10-XX5-XX5-----10-10-XX5-XX5----------------------------------------------------- 
-/8 8--XX3 XX3-----/8-8--XX3-XX3---------------------------------------------------- 
 
That?s it 
 
share this page

See Also: