E-Chords
Explosions In The Sky

Your Hand In Mine (acoustic)(Tabs)

Explosions In The Sky

roll up this ad to continue

 

    |     |     |        |     |     |       |     |     | 
E-|-11----------------|--12----------------|-14----------------| 
B-|-------------------|--------------------|-------------------| 
G-|-------------------|--------------------|-------------------| 
D-|-------------------|--------------------|-------------------| 
A-|-------------------|--------------------|-------------------| 
E-|-------------------|--------------------|-------------------| 

    |     |     |        |     |     |       |     |     | 
E-|-------------------|--------------------|-------------------| 
B-|-12----12----------|--------9-----------|-------7-----------| 
G-|-------------9-----|--------------9-----|-------------9-----| 
D-|-------------------|--------------------|-------------------| 
A-|-------------------|--------------------|-9-----------------| 
E-|-9-----------------|--0-----------------|-------------------| 

    |     |     |        |     |     |       |     |     | 
E-|-------------------|--------------------|-------------------| 
B-|-------------------|--------12----------|-------9-----------| 
G-|-------9-----8/9---|--------------9-----|-------------9-----| 
D-|-------------------|--------------------|-------------------| 
A-|-0-----------------|--------------------|-------------------| 
E-|-------------------|--9-----------------|-0-----------------| 
  
    |     |     |        |     |     |       |     |     | 
E-|-------------------|--------------------|-------------------| 
B-|-------7-----------|--------------------|-12----12-10-------| 
G-|-------------9-----|--------9-----8/9---|-------------9-----| 
D-|-------------------|--------------------|-------------------| 
A-|-9-----------------|--0-----------------|-------------------| 
E-|-------------------|--------------------|-9-----------------| 

    |     |     |        |     |     |       |     |     | 
E-|-------------------|--------------0-----|-------0-----------| 
B-|-9-----9-10--------|-----------10-------|-9-----7-----------| 
G-|-------------9-----|--11----11----------|-------------8/9---| 
D-|-------------------|--------------------|-------------------| 
A-|-------------------|--9-----------------|-0-----------------| 
E-|-0-----------------|--------------------|-------------------| 

    |     |     |        |     |     |       |     |     | 
E-|-------------------|--------------------|-------------------| 
B-|-9-----12----------|--------9-----------|-------7-----------| 
G-|-------------9-----|--------------9-----|-------------9-----| 
D-|-------------------|--------------------|-------------------| 
A-|-------------------|--------------------|-9-----------------| 
E-|-9-----------------|--0-----------------|-------------------| 

    |     |     |        |     |     |       |     |     | 
E-|-------------------|--9-----------------|-------------------| 
B-|-------------------|--------12-12-------|-10----9-9---------| 
G-|-------9-----8/9---|--------------9-----|-------------9-----| 
D-|-------------------|--------------------|-------------------| 
A-|-0-----------------|--------------------|-------------------| 
E-|-------------------|--9-----------------|-0-----------------| 

    |     |     |        |     |     |       |     |     | 
E-|-------------------|--------0-----------|-------------------| 
B-|-12----------------|--9-----7-----------|-------12----------| 
G-|-------11----9-----|--------------8/9---|-9-----------9-----| 
D-|-------------------|--------------------|-------------------| 
A-|-9-----------------|--0-----------------|-------------------| 
E-|-------------------|--------------------|-9-----------------| 

    |     |     |        |     |     |       |     |     | 
E-|-------------------|--------------------|-------------------| 
B-|-------9-----------|--------7-----------|-------------------| 
G-|-------------9-----|--------------9-----|-------9-----8/9---| 
D-|-------------------|--------------------|-------------------| 
A-|-------------------|--9-----------------|-0-----------------| 
E-|-0-----------------|--------------------|-------------------| 

    |     |     |        |     |     |       |     |     | 
E-|-------------------|--------------------|-------------0-----| 
B-|-12----12-10-------|--9-----9-10--------|----------10-------| 
G-|-------------9-----|--------------9-----|-11----11----------| 
D-|-------------------|--------------------|-------------------| 
A-|-------------------|--------------------|-9-----------------| 
E-|-9-----------------|--0-----------------|-------------------| 
    |     |     |        |     |     |       |     |     | 
E-|-------------------|--------------------|-------------------| 
B-|-9-----7-----------|--9-----12----------|-------9-----------| 
G-|-------9-----8/9---|--------------9-----|-------------9-----| 
D-|-------------------|--------------------|-------------------| 
A-|-0-----------------|--------------------|-------------------| 
E-|-------------------|--9-----------------|-0-----------------| 

    |     |     |        |     |     |       |     |     | 
E-|-------------------|--------------------|-9-----------------| 
B-|-------7-----------|--------------------|-------12-12-------| 
G-|-------------9-----|--------9-----8/9---|-------------9-----| 
D-|-------------------|--------------------|-------------------| 
A-|-9-----------------|--0-----------------|-------------------| 
E-|-------------------|--------------------|-9-----------------| 

    |     |     |        |     |     |       |     |     | 
E-|-------------------|--------------------|-------------------| 
B-|-10----9-9---------|--12----------------|-9-----7-----------| 
G-|-------------9-----|--------11----9-----|-------9-----8/9---| 
D-|-------------------|--------------------|-------------------| 
A-|-------------------|--9-----------------|-0-----------------| 
E-|-0-----------------|--------------------|-------------------| 

    |     |     |        |     |     |       |     |     | 
E-|-------------------|--------------------|-------------------| 
B-|-9-----12----10----|--12----9-----------|-9-----------10----| 
G-|-9-----------9-----|--------------9-----|-------11----9-----| 
D-|-------------------|--------------------|-------------------| 
A-|-------------------|--------------------|-9-----------------| 
E-|-9-----------------|--0-----------------|-------------------| 

    |     |     |        |     |     |       |     |     | 
E-|-0-----------------|-----------2-----2--|-------------------| 
B-|-------------4-----|o-5-----5-----------|-9-----9--7-----7--| 
G-|-------------------|--------------------|-------------------| 
D-|-------------------|--------2-----------|-------------------| 
A-|-0-----------------|o-4-----------4-----|-------6-----------| 
E-|-------------------|--------------------|-7-----------7-----| 

    |     |     |        |     |     |       |     |     | 
E-|-------------------|--7-----5-----------|-12-------------16-| 
B-|-5-----5--7-----7--|--5-----5-----9h10--|-------------------| 
G-|-------------------|--------------9-----|-------------------| 
D-|-------6-----------|--------7-----------|-------------------| 
A-|-------------------|--0-----------9-----|-------------------| 
E-|-0-----------0-----|--------------------|-9-----12----9-----| 
  
    |     |     |        |     |     |       |     |     | 
E-|-12-------------14-|--12----------------|-------------------| 
B-|-------------------|--------------------|------------------o| 
G-|-------------------|--------------------|-------2-----------| 
D-|-------------------|--------------------|-------------4-----| 
A-|-------------------|--------11----------|-0----------------o| 
E-|-7-----11----7-----|--0-----------0-----|-------------------| 

    |     |     |        |     |     |       |     |     | 
E-|-------------------|--------------------|-------------------| 
B-|-------------------|--------------------|-12----12-10-------| 
G-|-------------------|--------------------|-------------9-----| 
D-|-------------------|--------------------|-------------------| 
A-|-4-----------------|--------------------|-------------------| 
E-|-------------------|--------------------|-9-----------------| 

    |     |     |        |     |     |       |     |     | 
E-|-------------------|--------------0-----|-------------------| 
B-|-9-----9--10-------|-----------10-------|-9-----7-----------| 
G-|-------------9-----|--11----11----------|-------9-----8/9---| 
D-|-------------------|--------------------|-------------------| 
A-|-------------------|--9-----------------|-0-----------------| 
E-|-0-----------------|--------------------|-------------------| 

    |     |     |        |     |     |       |     |     | 
E-|-------------------|--------------------|-------------------| 
B-|-9-----12----10----|--12----9-----------|-9-----------10----| 
G-|-------------9-----|--------------9-----|-------11----9-----| 
D-|-------------------|--------------------|-------------------| 
A-|-------------------|--------------------|-9-----------------| 
E-|-9-----------------|--0-----------------|-------------------| 

    |     |     |        |     |     |       |     |     | 
E-|-------------------|--9-----------------|-------------------| 
B-|-------------------|--------12-12-------|-10----9--9--------| 
G-|-9-----9-----8/9---|--------------9-----|-------------9-----| 
D-|-------------------|--------------------|-------------------| 
A-|-0-----------------|--------------------|-------------------| 
E-|-------------------|--9-----------------|-0-----------------| 

    |     |     |        |     |     |       |     |     | 
E-|-------------------|--------------------|-------------------| 
B-|-12----------------|--9-----7-----------|-------12----------| 
G-|-------11----9-----|--------9-----8/9---|-9-----------9-----| 
D-|-------------------|--------------------|-------------------| 
A-|-9-----------------|--0-----------------|-------------------| 
E-|-------------------|--------------------|-9-----------------| 

    |     |     |        |     |     |       |     |     | 
E-|-------------0-----|--------------0-----|-------0-----------| 
B-|-------9-----------|--------------------|-------------4-----| 
G-|-8-----------------|--------11----------|-------------------| 
D-|-------------------|--9-----------------|-7-----------------| 
A-|-------------------|--9-----------------|-0-----------------| 
E-|-0-----------------|--------------------|-------------------| 

    |     |     |        |     |     |       |     |     | 
E-|-------0-----------|--------0-----------|-------0-----------| 
B-|-------------4-----|--------------4-----|-------------4-----| 
G-|-4-----------------|--2-----------------|-------------------| 
D-|-------------------|--------------------|-2-----------------| 
A-|-2-----------------|--2-----------------|-2-----------------| 
E-|-------------------|--------------------|-------------------| 

    |     |     |        |     |     |       |     |     | 
E-|-------0-----------|--7-----------------|-------------------| 
B-|-------------4-----|--------9-----9-----|-------7-----7-----| 
G-|-------------------|-----9-----9-----9--|----9-----9-----9--| 
D-|-4-----------------|--------------------|-------------------| 
A-|-2-----------------|--------------------|-------------------| 
E-|-------------------|--9-----------------|-0-----------------| 

    |     |     |        |     |     |       |     |     | 
E-|----------0--------|-----------0--------|-------0-----------| 
B-|-------7-----7-----|--------7-----7-----|----------4-----0--| 
G-|----8-----------8--|-----8-----------8--|----6--------6-----| 
D-|-------------------|--------------------|-------------------| 
A-|-------------------|--------------------|-0-----------------| 
E-|-7-----------------|--7-----------------|-------------------| 

    |     |     |        |     |     |       |     |     | 
E-|-------------------|-----0-----------0--|----0-----------0--| 
B-|----------0--------|-----------0--------|----------0--------| 
G-|-------4-----4-----|--------8-----8-----|-------8-----8-----| 
D-|----6-----------6--|--------------------|-------------------| 
A-|-------------------|--------------------|-------------------| 
E-|-0-----------------|--7-----------------|-7-----------------| 

     |    |     |        |     |     |       |     |     | 
E-|-------------------|--7-----------------|----------0--------| 
B-|o-9----9-----9-----|--------7-----7-----|-7-----7-----7-----| 
G-|----9-----9-----9--|-----9-----9-----9--|----8-----------8--| 
D-|-------------------|--------------------|-------------------| 
A-|o------------------|--------------------|-------------------| 
E-|--9----------------|--0-----------------|-7-----------------| 

    |     |     |        |     |     |       |     |     | 
E-|----------0--------|--------0-----------|-0-----------------| 
B-|-7-----7-----7-----|--0--------4-----0--|----------0--------| 
G-|----8-----------8--|-----6-----6--6-----|-------4-----4-----| 
D-|-------------------|--------------------|----6-----------6--| 
A-|-------------------|--0-----------------|-------------------| 
E-|-7-----------------|--------------------|-0-----------------| 

    |     |     |        |     |     |       |     |     | 
E-|-------------------|--------------------|--9----------------| 
B-|-7-----------------|-------------------o|o------9-----9-----| 
G-|----9--8-----8--9--|-----9--8-----8--9--|----9-----9-----9--| 
D-|----------9--------|-----------9--------|-------------------| 
A-|-------------------|-------------------o|o------------------| 
E-|-7-----------------|--7-----------------|--9----------------| 

    |     |     |        |     |     |       |     |     | 
E-|-------------------|-----------0--------|----------0--------| 
B-|-9-----10----12----|--7-----7-----7-----|-------7-----7-----| 
G-|----9-----9--------|-----8-----------8--|----8-----------8--| 
D-|-------------------|--------------------|-------------------| 
A-|-------------------|--------------------|-------------------| 
E-|-0-----------------|--7-----------------|-7-----------------| 

    |     |     |        |     |     |       |     |     | 
E-|-5-----0-----------|--12----11----------|-7-----------------| 
B-|----------4-----0--|-----------0--------|-------------------| 
G-|----6--------6-----|--------------------|----9--8-----8--9--| 
D-|-------------------|--------------9-----|----------9--------| 
A-|-0-----------------|-----11----------11-|-------------------| 
E-|-------------------|--0-----------------|-7-----------------| 

    |     |     |        |     |     |       |     |     | 
E-|-7-----------------|-----0--0--0-----0--|----0--0--0-----0--| 
B-|------------------o|--------------------|-------------------| 
G-|----9--8-----8--9--|--------------------|-------------------| 
D-|----------9--------|--------------2-----|-------------4-----| 
A-|------------------o|--4-----------------|-2-----------------| 
E-|-7-----------------|--------------------|-------------------| 

    |     |     |        |     |     |       |     |     | 
E-|----0--0--0-----0--|-----0--0--0--0--0--|----0--0--0-----0--| 
B-|-------------------|--------------------|-------------------| 
G-|-------------1-----|--1-----------------|-------------------| 
D-|-------------------|--------------------|-------------2-----| 
A-|-------------------|--------------------|-4-----------------| 
E-|-0-----------------|--------------------|-------------------| 

    |     |     |        |     |     |       |     |     | 
E-|----0--0--0-----0--|-----0--0--0-----0--|----0--0--0--0--0--| 
B-|-------------------|--------------------|-------------------| 
G-|-------------------|--------------------|-------------------| 
D-|-------------4-----|--------------2-----|-2-----------------| 
A-|-2-----------------|--------------------|-------------------| 
E-|-------------------|--0-----------------|-------------------| 

    |     |     |        |     |     |       |     |     | 
E-|-0--0--0--0-----0--|-----0--0--0-----0--|----0--0--0-----0--| 
B-|-------------------|--4-----------------|-0-----------------| 
G-|-------------------|--------------------|-------------1-----| 
D-|-------------2-----|--------------4-----|-------------------| 
A-|-4-----------------|--2-----------------|-------------------| 
E-|-------------------|--------------------|-0-----------------| 

    |     |     |        |     |     |       |     |     | 
E-|----0--0--0--0--0--|-----0--0--0-----0--|----0--0--0-----0--| 
B-|-------2--0--------|--------------------|-------------------| 
G-|-1-----------------|--------------------|-2-----------------| 
D-|-------------------|--6-----------2-----|-------------4-----| 
A-|-------------------|--4-----------------|-2-----------------| 
E-|-------------------|--------------------|-------------------| 

    |     |     |        |     |     |       |     |     | 
E-|----0--0--0-----0--|-----0--0--0--0--0--|-0--0--0--0-----0--| 
B-|-------------------|--------------0-----|-------------------| 
G-|-1-----------------|--1-----2-----------|-------------------| 
D-|-------------2-----|--------------------|-------------------| 
A-|-------------------|--2-----------------|-------------7-----| 
E-|-0-----------------|--------------------|-9-----------------| 

    |     |     |        |     |     |       |     |     | 
E-|----0--0--0-----0--|-----0--0--0-----0--|----0--0--0--0--0--| 
B-|-7-----------------|--9-----------------|-------10-9--------| 
G-|-------------------|--------------------|-------------------| 
D-|-------------------|--------------------|-------------------| 
A-|-------------9-----|--------------11----|-11----------------| 
E-|-7-----------------|--0-----------------|-------------------| 

    |     |     |        |     |     |       |     |     | 
E-|-0--0--0--0-----0--|-----0--0--0-----0--|-0--0--0--0-----0--| 
B-|-------------------|--------10-9--------|-------------------| 
G-|-------------------|--------------------|-------------------| 
D-|-------------------|--------------------|-------------------| 
A-|-------------7-----|--------------9-----|-------------7-----| 
E-|-9-----------------|--7-----------------|-0-----------------| 

    |     |     |        |     |     |       |     |     | 
E-|----0--0--0--0--0--|-----0--0--0-----0--|----0--0--0-----0--| 
B-|-------------------|--------------------|----------7--------| 
G-|-------------------|--6--------9--------|-8-----------------| 
D-|-------------------|--------------------|-------------------| 
A-|-7-----------------|--4-----------7-----|-------------9-----| 
E-|-------------------|--------------------|-7-----------------| 

    |     |     |        |     |     |       |     |     | 
E-|----0--0--0-----0--|-----0--0--0--0--0--|----0--0--0-----0--| 
B-|-10----9-----------|--9-----------------|-12-------9--------| 
G-|-------------------|--------------------|-------------------| 
D-|-------------6-----|--6-----------------|-------------------| 
A-|-------------------|--------------------|-------------7-----| 
E-|-0-----------------|--------------------|-9-----------------| 

    |     |     |        |     |     |       |     |     | 
E-|----0--0--0-----0--|--0--0--0--0-----0--|-0--0--0--0--0--0--| 
B-|-10-------9--------|--------------------|-------------------| 
G-|-------------------|--------------------|-------------------| 
D-|-------------------|--------------------|-------------------| 
A-|-------------9-----|--------------7-----|-7-----------------| 
E-|-7-----------------|--0-----------------|-------------------| 

    |     |     |        |     |     |       |     |     | 
E-|-------------------|----7-7-7-----------|-------------------| 
B-|---121212-10-9-----|-----------10-9-----|---121212-10-9-----| 
G-|-------------------|--------------------|-------------------| 
D-|-------------------|--------------------|-------------------| 
A-|-------------7-----|--------------9-----|-------------11----| 
E-|-9-----------------|--7-----------------|-0-----------------| 

    |     |     |        |     |     |       |     |     | 
E-|-------------------|--------------------|-------------------| 
B-|-9-----10----12----|----121212-10-9-----|---7-7-7--10-9-----| 
G-|-------------------|--------------------|-------------------| 
D-|-------------------|--------------------|-------------------| 
A-|-11----------------|--------------7-----|-------------9-----| 
E-|-------------------|--9-----------------|-7-----------------| 

    |     |     |        |     |     |       |     |     | 
E-|-------------------|--------------------|-0-----------0-----| 
B-|---121212-10-9-----|--9-----10----12----|-0-----------0-----| 
G-|-------------------|--------------------|-6-----------6-----| 
D-|-------------------|--------------------|-7-----------7-----| 
A-|-------------9-----|--7-----------------|-7-----------0-----| 
E-|-0-----------------|--------------------|-5-----------------| 

    |     |     |        |     |     |       |     |     | 
E-|-0-----0-----0-----|--7-----------------|-7-----------7-----| 
B-|-0-----0-----0-----|--9-----------------|-9-----------9-----| 
G-|-8-----9-----11----|--9-----------------|-9-----------9-----| 
D-|-7-----7-----7-----|--9-----------------|-9-----------9-----| 
A-|-0-----0-----0-----|--7-----------------|-7-----------7-----| 
E-|-------------------|--0-----------------|-0-----------0-----| 

    |     |     |        |     |     |       |     |     | 
E-|-0-----------0-----|--0-----------0-----|-0-----------------| 
B-|-0-----------0-----|--0-----------0-----|-0-----------------| 
G-|-6-----------6-----|--9-----------8-----|-1-----------------| 
D-|-7-----------7-----|--7-----------7-----|-2-----------------| 
A-|-7-----------0-----|--0-----------0-----|-2-----------------| 
E-|-5-----------------|--------------------|-0-----------------| 

    |     |     |        |     |     |       |     |     | 
E-|-0-----------------|--0-----------------|-------------------| 
B-|-0-----------------|--0-----------------|-------------------| 
G-|-1-----------------|--6-----------------|-------------------| 
D-|-2-----------------|--7-----------------|-------------------| 
A-|-2-----------------|--7-----------------|-------------------| 
E-|-0-----------------|--5-----------------|-------------------| 
 
share this page

See Also: