E-Chords
Explosions In The Sky

Yasmin The Light(Tabs)

Explosions In The Sky

roll up this ad to continue

Key: B
 
Guitar 1  
               Verse 1 
e|---------------------------------------------| 
B|---------------------------------------------| 
G|---------------------------------------------|     3x 
D|---------6~~---------------------------------| 
A|---7--------------7------7------0~~----------| 
E|-7-----7--------7------7------7--------------| 

               Verse 2 
e|----------------------------------------------| 
B|--------------5~~-----------------------------| 
G|-----------4----------------------------------|    4x 
D|--(6)--6--------------------------------------| 
A|----------------------------------------------| 
E|----------------------------------------------| 

               Verse 3 
e|--------------------------------------------------------------| 
B|--9-9-9-9-9-9-10-9-(Repeat as many times)-----7-7-7-7-7-7-7~~-| 
G|--------------------------------------------------------------| 
D|--------------------------------------------------------------|  
A|--------------------------------------------------------------| 
E|--------------------------------------------------------------| 


Michael James   
Guitar 2 
                Verse 1 
e|-------------------------------------------------------------| 
B|-------------------------------------------------------------| 
G|-------------------------------------------------------------| 
D|---------------13^~---------13^~-----------------------------|
A|----11---14-11------14---11-----14---------------------------| 
E|--0----0---------------0-----------0~~-----------------------| 


                Verse 2 
e|-------------------------------------------------------------| 
B|-------------------------------------------------------------|  
G|-------------------13~--------11\--9-------------------------|  
D|----11---14---11---------11---------9~-----------------------|  
A|--0----0----0----0-----0----0--------------------------------|  
E|-------------------------------------------------------------|  


                Verse 3 
e|----------------------------------------------------------------------| 
B|----------------------------------------------------------------------| 
G|---------------9~--------------------------------9----8-----------11~-| 
D|----------11----------------9---11~-----------------------------9-----| 
A|-----11-----------------9---------------9---11--------------9---------| 
E|--/9----9----9----9\--7---7---7-------0---0----0---0-----0----0-------| 



Munaf Rayani (the solo) 
Guitar 3 
                
e|----------------------------------------------| 
B|----------------------------------------------| 
G|---13!--------9~~/-16!-------14~~\-13!--------| 
D|---X-!--------X~~/-X-!-------X~~-\-X-!--------| 
A|---11!--------7~~/-14!-------12~~\-11!--------| 
E|---0-!--------0~~/-0-!-------0~~-\-0-!--------|  
share this page

See Also: