E-Chords
Explosions In The Sky

Waking Up(Tabs)

Explosions In The Sky

roll up this ad to continue


E|-------------------------------------------------------------------------------| 
B|-------------------------------1-----3---------1-------------------------------| 
G|-----0------------0---------2--2--0--0------2--2--0---------0------------0-----| 
D|--2--2--0------2--2--0------2--2--2--0------2--2--2------2--2--0------2--2--0--| 
A|--3--3--2------3--3--2------0-----2---------0-----2------3--3--2------3--3--2--| 
E|--3-----3------3-----3-----------------------------------3-----3------3-----3--| 



E|-----------------------------------------------------------------------| 
B|--3--5--3--0--1--5------3--5--3--0--1----3------3--5--3--0--1--5--8\3--| 
G|-----------------------------------------------------------------------| 
D|-----------------------------------------------------------------------| 
A|-----------------------------------------------------------------------| 
E|-----------------------------------------------------------------------| 



E|-------------------------------------------------------------------------| 
B|--3--5--3--0--1--5------3--5--3--0--1----3--3--3--3--5--3--0--1--5--8\3--| 
G|-------------------------------------------------------------------------|X2 
D|-------------------------------------------------------------------------| 
A|-------------------------------------------------------------------------| 
E|-------------------------------------------------------------------------| 



E|-------------------------------------------------------------| 
B|-------------------------------------------------------------| 
G|--7--5--4--2--5------7--5--4--2--0--0--0/7--5--4--2--5--2/4--| 
D|-------------------------------------------------------------| 
A|-------------------------------------------------------------| 
E|-------------------------------------------------------------| 



E|--------------------------------------------------------------------| 
B|-------------------------------------1-------------0----------------| 
G|------------------------------2------2------2------0----------------| 
D|--2------0------2------0------2------2------2------0------2------0--| 
A|--3------2------3------2------0-------------0-------------3------2--| 
E|--3------3------3------3----------------------------------3------3--| 



E|----------------------------------------------------------------------------| 
B|--1/13--13--13--13--13--13--13--12--12--12--15--15--15--17--15--15--17--15--| 
G|----------------------------------------------------------------------------| 
D|----------------------------------------------------------------------------| 
A|----------------------------------------------------------------------------| 
E|----------------------------------------------------------------------------| 



E|--------------------------------------------------------------| 
B|--15--13--13--15--13--12\10----10--10--10--10--10--6--5----3--| 
G|--------------------------------------------------------------| 
D|--------------------------------------------------------------| 
A|--------------------------------------------------------------| 
E|--------------------------------------------------------------| 



E|----------------------------------------------------------------------------| 
B|--1/13--13--13--13--13--13--13--12--12--12--15--15--15--17--15--15--17--15--| 
G|----------------------------------------------------------------------------| 
D|----------------------------------------------------------------------------| 
A|----------------------------------------------------------------------------| 
E|----------------------------------------------------------------------------| 


                       ** 
E|----------------------------------------| 
B|--15--13--15--13--12\10--10--6--5----3--| 
G|----------------------------------------| 
D|----------------------------------------| 
A|----------------------------------------| 
E|----------------------------------------| 


**Secondary guitar plays this piece: 
(at the designated time above) 
E|-----------------------------------------| 
B|-----------------------------------------| 
G|--5--7--9--10--12--14--17--17--17----16--| 
D|-----------------------------------------| 
A|-----------------------------------------| 
E|-----------------------------------------| 



E|--------------------------------------------------------------| 
B|--3--5--3--0--1--5----3--5--3--0--1--5--8\3-------------------| 
G|-----------------------------------------------7--5--4--2--5--| 
D|--------------------------------------------------------------| 
A|--------------------------------------------------------------| 
E|--------------------------------------------------------------| 



E|---------------------------------------------------------| 
B|---------------------------------------------------------| 
G|--7--5--4--2----0--0--0/7--5--4--2--5----2/4----4--4--4--| 
D|---------------------------------------------------------| 
A|---------------------------------------------------------| 
E|---------------------------------------------------------| 



E|----------------------------------------------------------------------| 
B|--13--13--13--13--13--13--12--12--12--15--15--15--17--15--15--17--15--| 
G|----------------------------------------------------------------------| 
D|----------------------------------------------------------------------| 
A|----------------------------------------------------------------------| 
E|----------------------------------------------------------------------| 



E|---------------------------------------------------------------------| 
B|--15--13--15--13--12--10----10--6--6--6--5----5--5--3----3--3--3/13--| 
G|---------------------------------------------------------------------| 
D|---------------------------------------------------------------------| 
A|---------------------------------------------------------------------| 
E|---------------------------------------------------------------------| 



E|--------------------------------------------------------------------------| 
B|--13--13--13--13--13--13--15--15--15--17--17--17--20--17--17--20--17--17--| 
G|--------------------------------------------------------------------------| 
D|--------------------------------------------------------------------------| 
A|--------------------------------------------------------------------------| 
E|--------------------------------------------------------------------------| 



E|-----------------------------------------| 
B|--20--17--17--20--17--17--20-------------| 
G|--------------------------------------0--| 
D|--------------------------------------2--| 
A|--------------------------------------3--| 
E|-----------------------------------------| 


Thanks for playing! 
share this page

See Also: