E-Chords
Explosions In The Sky

Let Me Back In(Tabs)

Explosions In The Sky

roll up this ad to continue

 Piano Intro 
  Q=75 
 4/4 
  Gtr I 
  Wx5 
|--------| 
|--------| 
|--------| 
|--------| 
|--------| 
|--------| 


 Band Enters 
  Gtr I 
    H.                                               S    a   E.               a 
|---------------------------------------------------------------------------------| 
|---------------------------------------------------------------------------------| 
|-^12----------------------------------------------^12--(12)s10--------------(10)s| 
|---------------------------------------------------------------------------------| 
|-^10----------------------------------------------^10--(10)s=8---------------(8)s| 
|---------------------------------------------------------------------------------| 
| 
| Gtr II 
|   |-------------3-------------|   |------------------3------------------| 
|   E   S   E   S   E   S   E   S   E   S   E   S    E            S   E   S 
|---------------------------------------------------------------------------------| 
|-----------------------------------------------4---(4)-------------------4-------| 
|-------5--(5)----------5--(5)----------5--(5)--5---(5)-------------------5-------| 
|-----------5---5--(5)--5--(5)--5--(5)--5--(5)--5---(5)-----------5--(5)--5-------| 
|---3--(3)--3--(3)--3--(3)--3--(3)--3--(3)--3--(3)---3-----------(3)--3--(3)------| 
|---------------------------------------------------------------------------------| 


   Q.                      +S  S       E.           a   S       E        a   E 
|------------------------------------------------------------------------------------| 
|------------------------------------------------------------------------------------| 
|-12----------------------(12)-------^12----------(12)s13-----^13------(13)s12-------| 
|------------------------------------------------------------------------------------| 
|-10----------------------(10)-------^10----------(10)s11-----^11------(11)s10-------| 
|------------------------------------------------------------------------------------| 
| 
|  |--------------3---------------|    |--------------------3--------------------| 
|  E   S   E   S   E   S    E     S    E   S   E           S    E   S        E   S 
|------------------------------------------------------------------------------------| 
|-(4)------------------------------------------------------4---(4)---------------4---| 
|-(5)--5--(5)----------5---(5)-------------5--(5)----------5---(5)--5-------(5)--5---| 
|-(5)--5--(5)--5--(5)--5---(5)----5---(5)--5--(5)----------5---(5)--5-------(5)--5---| 
|--3--(3)--3--(3)--3--(3)---3----(3)---3--(3)--3----------(3)---3--(3)-------3--(3)--| 
|------------------------------------------------------------------------------------| 


    H.                                               S    a   E.               a 
|---------------------------------------------------------------------------------| 
|---------------------------------------------------------------------------------| 
|-^12----------------------------------------------^12--(12)s10--------------(10)s| 
|---------------------------------------------------------------------------------| 
|-^10----------------------------------------------^10--(10)s=8---------------(8)s| 
|---------------------------------------------------------------------------------| 
| 
|   |-------------3-------------|   |------------------3------------------| 
|   E   S   E   S   E   S   E   S   E   S   E   S    E            S   E   S 
|---------------------------------------------------------------------------------| 
|--(4)------------------------------------------3---(3)-----------3--(3)--3-------| 
|--(5)--5--(5)--5--(5)--5--(5)--5--(5)--5--(5)--5---(5)-----------5--(5)--5-------| 
|--(5)--5--(5)--5--(5)--5--(5)--5--(5)--5--(5)--5---(5)-----------5--(5)--5-------| 
|---------------------------------------------------------------------------------| 
|---4--(4)--4--(4)--4--(4)--4--(4)--4--(4)--4--(4)---4-----------(4)--4--(4)------| 


   E..             T  Q               a   E.         S      E       a   E 
|-------------------------------------------------------------------------------| 
|-------------------------------------------------------------------------------| 
|--8-----------------^8--------------(8)s=7-----------------7------(7)s12-------| 
|-------------------------------------------------------------------------------| 
|--6-----------------^6--------------(6)s=5-----------------5------(5)s10-------| 
|-------------------------------------------------------------------------------| 
| 
|  |--------------3---------------|       |----------------3----------------| 
|  E    S   E   S     E   S   E   S       E   S   E     S   E   S       E   S 
|-------------------------------------------------------------------------------| 
|-(3)---------------------------------------------------3--(3)--------------3---| 
|-(5)-----------3----(3)----------3------(3)------------3--(3)--3------(3)--3---| 
|-(5)---3--(3)------------3--(3)--------------3--(3)----3--(3)--3------(3)--3---| 
|--1---(1)--1--(1)----1--(1)--1--(1)------1--(1)--1----(1)--1--(1)------1--(1)--| 
|-------------------------------------------------------------------------------| 


    H.                                               S    a   E. 
|----------------------------------------------------------------------------| 
|----------------------------------------------------------------------------| 
|-^12----------------------------------------------^12--(12)s10--------------| 
|----------------------------------------------------------------------------| 
|-^10----------------------------------------------^10--(10)s=8--------------| 
|----------------------------------------------------------------------------| 
| 
|   |-------------3-------------|   |------------------3------------------| 
|   E   S   E   S   E   S   E   S   E   S   E   S    E            S   E   S 
|----------------------------------------------------------------------------| 
|--(3)------------------------------------------4---(4)-------------------4--| 
|--(3)--5--(5)----------5--(5)----------5--(5)--5---(5)-------------------5--| 
|--(3)------5---5--(5)--5--(5)--5--(5)--5--(5)--5---(5)-----------5--(5)--5--| 
|---3--(3)--3--(3)--3--(3)--3--(3)--3--(3)--3--(3)---3-----------(3)--3--(3)-| 
|----------------------------------------------------------------------------| 


    a   Q.                      +S  S       E.           a   S       E        a   E 
|-----------------------------------------------------------------------------------------| 
|-----------------------------------------------------------------------------------------| 
|-(10)s12----------------------(12)-------^12----------(12)s13-----^13------(13)s15-------| 
|-----------------------------------------------------------------------------------------| 
|--(8)s10----------------------(10)-------^10----------(10)s11-----^11------(11)s13-------| 
|-----------------------------------------------------------------------------------------| 
| 
|       |--------------3---------------|    |--------------------3--------------------| 
|       E   S   E   S   E   S    E     S    E   S   E           S    E   S        E   S 
|-----------------------------------------------------------------------------------------| 
|------(4)------------------------------------------------------4---(4)---------------4---| 
|------(5)--5--(5)----------5---(5)-------------5--(5)----------5---(5)--5-------(5)--5---| 
|------(5)--5--(5)--5--(5)--5---(5)----5---(5)--5--(5)----------5---(5)--5-------(5)--5---| 
|-------3--(3)--3--(3)--3--(3)---3----(3)---3--(3)--3----------(3)---3--(3)-------3--(3)--| 
|-----------------------------------------------------------------------------------------| 


    H                                Q.                       S    a   S 
|----------------------------------------------------------------------------| 
|----------------------------------------------------------------------------| 
|-^15------------------------------^13----------------------^15--(15)s12-----| 
|----------------------------------------------------------------------------| 
|-^13------------------------------^11----------------------^13--(13)s10-----| 
|----------------------------------------------------------------------------| 
| 
|   |-------------3-------------|    |-----------------3------------------| 
|   E   S   E   S   E   S   E   S    E   S   E   S   E   S    E           S 
|----------------------------------------------------------------------------| 
|--(4)-------------------------------------------3--(3)--3---(3)----------3--| 
|--(5)--5--(5)--5--(5)--5--(5)--5---(5)--5--(5)--5--(5)--5---(5)----------5--| 
|--(5)--5--(5)--5--(5)--5--(5)--5---(5)--5--(5)--5--(5)--5---(5)----------5--| 
|----------------------------------------------------------------------------| 
|---4--(4)--4--(4)--4--(4)--4--(4)---4--(4)--4--(4)--4--(4)---4----------(4)-| 


    H                               Q.                      a   E 
|-----------------------------------------------------------------------| 
|-----------------------------------------------------------------------| 
|-^12------------------------------^7----------------------(7)s12-------| 
|-----------------------------------------------------------------------| 
|-^10------------------------------^5----------------------(5)s10-------| 
|-----------------------------------------------------------------------| 
| 
|   |-------------3-------------|   |---------------3---------------| 
|   E   S   E   S   E   S   E   S   E   S   E   S   E   S       E   S 
|-----------------------------------------------------------------------| 
|--(3)------------------------------------------3--(3)--------------3---| 
|--(5)----------3--(3)----------3--(3)----------3--(3)--3------(3)--3---| 
|--(5)--3--(3)----------3--(3)----------3--(3)--3--(3)--3------(3)--3---| 
|---1--(1)--1--(1)--1--(1)--1--(1)--1--(1)--1--(1)--1--(1)------1--(1)--| 
|-----------------------------------------------------------------------| 


      H.                                                         S    a   E. 
||----------------------------------------------------------------------------------------| 
||o---------------------------------------------------------------------------------------| 
||--^12--------------------------------------------------------^12--(12)s10---------------| 
||----------------------------------------------------------------------------------------| 
||o-^10--------------------------------------------------------^10--(10)s=8---------------| 
||----------------------------------------------------------------------------------------| 
| 
|     |----------------3-----------------|    |-------------------3--------------------| 
|     E   S   E   S   E        S   E     S    E    S    E   S    E            S    E   S 
||----------------------------------------------------------------------------------------| 
||o--(3)----------------------------------------------------4---(4)-----------------------| 
||---(3)--5--(5)---------------5--(5)--------------5---(5)--5---(5)--------------------5--| 
||---(3)------5---5--(5)-------5--(5)----5---(5)---5---(5)--5---(5)-----------5---(5)--5--| 
||o---3--(3)--3--(3)--3-------(3)--3----(3)---3---(3)---3--(3)---3-----------(3)---3--(3)-| 
||----------------------------------------------------------------------------------------| 
| 
|   Gtr III 
|     |---------------------------------------3----------------------------------------| 
|     E   S   E   S   E    a   S   E     S    E    S    E   S    E            S    E   S 
||----------------------------------------------------------------------------------------| 
||o---------------------------------------------------------------------------------------| 
||--------8------10--12--(12)s10--10---/15--(15)-\12--(12)-10--(10)----------10--(10)-10--| 
||----------------------------------------------------------------------------------------| 
||o---6--(6)-/8---8--10--(10)s=8--(8)-/(13)--13--------10--------8-----------(8)---8--(8)-| 
||----------------------------------------------------------------------------------------| 


    a   Q.                           +S  S         E.             a   S       E        a    E 
|---------------------------------------------------------------------------------------------------| 
|---------------------------------------------------------------------------------------------------| 
|-(10)s12---------------------------(12)---------^12------------(12)s13-----^13------(13)s=12-------| 
|---------------------------------------------------------------------------------------------------| 
|--(8)s10---------------------------(10)---------^10------------(10)s11-----^11------(11)s=10-------| 
|---------------------------------------------------------------------------------------------------| 
| 
|       |------------------3------------------|    |---------------------3----------------------| 
|       E   S   E   S   E        S    E       S    E    S    E           S    E   S         E   S 
|---------------------------------------------------------------------------------------------------| 
|-------4----------------------------------------------------------------4---(4)----------------4---| 
|------(5)--5--(5)---------------5---(5)----------------5---(5)----------5---(5)--5--------(5)--5---| 
|------(5)--5--(5)--5--(5)-------5---(5)------5---(5)---5---(5)----------5---(5)--5--------(5)--5---| 
|-------3--(3)--3--(3)--3-------(3)---3------(3)---3---(3)---3----------(3)---3--(3)--------3--(3)--| 
|---------------------------------------------------------------------------------------------------| 
| 
|       |-------------------------------------------3-------------------------------------------| 
|       E   S   E   S   E    a   S    E       S    E    S    E           S    E   S         E   S 
|---------------------------------------------------------------------------------------------------| 
|---------------------------------------------------------------------------------------------------| 
|-----------8------10--12--(12)s10---10-----/15--(15)-\12--(12)---------10--(10)-10-------(10)-10---| 
|---------------------------------------------------------------------------------------------------| 
|-------6--(6)-/8---8--10--(10)s=8---(8)---/(13)--13--------10----------------8--(8)--------8--(8)--| 
|---------------------------------------------------------------------------------------------------| 


    H.                                              S    a   E. 
|---------------------------------------------------------------------------| 
|---------------------------------------------------------------------------| 
|-^12---------------------------------------------^12--(12)s10--------------| 
|---------------------------------------------------------------------------| 
|-^10---------------------------------------------^10--(10)s=8--------------| 
|---------------------------------------------------------------------------| 
| 
|   |-------------3-------------|  |------------------3------------------| 
|   E   S   E   S   E   S   E   S  E   S   E   S    E            S   E   S 
|---------------------------------------------------------------------------| 
|--(4)-----------------------------------------3---(3)-----------3--(3)--3--| 
|--(5)--5--(5)--5--(5)--5--(5)--5-(5)--5--(5)--5---(5)-----------5--(5)--5--| 
|--(5)--5--(5)--5--(5)--5--(5)--5-(5)--5--(5)--5---(5)-----------5--(5)--5--| 
|---------------------------------------------------------------------------| 
|---4--(4)--4--(4)--4--(4)--4--(4)-4--(4)--4--(4)---4-----------(4)--4--(4)-| 
| 
|   |---------------------------------3----------------------------------| 
|   E   S   E   S   E   S   E   S  E   S   E   S    E            S   E   S 
|---------------------------------------------------------------------------| 
|---------------------------------------------------------------------------| 
|------12------12------13------13s12--12------12----------------12------12--| 
|---------------------------------------------------------------------------| 
|--10------10------11------11-------------10-------10---------------10------| 
|---------------------------------------------------------------------------| 


    a   E..             T  Q              a   E.         S      E       a   E 
|------------------------------------------------------------------------------------|| 
|-----------------------------------------------------------------------------------o|| 
|-(10)s=8-----------------^8-------------(8)s=7-----------------7------(7)s12--------|| 
|------------------------------------------------------------------------------------|| 
|--(8)s=6-----------------^6-------------(6)s=5-----------------5------(5)s10-------o|| 
|------------------------------------------------------------------------------------|| 
| 
|       |--------------3---------------|      |----------------3----------------| 
|       E    S   E   S     E   S   E   S      E   S   E     S   E   S       E   S 
|------------------------------------------------------------------------------------|| 
|------(3)--------------------------------------------------3--(3)--------------3---o|| 
|------(5)-----------3----(3)----------3-----(3)------------3--(3)--3------(3)--3----|| 
|------(5)---3--(3)------------3--(3)-------------3--(3)----3--(3)--3------(3)--3----|| 
|-------1---(1)--1--(1)----1--(1)--1--(1)-----1--(1)--1----(1)--1--(1)------1--(1)--o|| 
|------------------------------------------------------------------------------------|| 
| 
|       |-----------------------------------3-----------------------------------| 
|       E    S   E   S     E   S   E   S      E   S   E     S   E   S       E   S 
|------------------------------------------------------------------------------------|| 
|-----------------------------------------------------------------------------------o|| 
|-----------12------12--------13------13s====12--12--------12------12----------12----|| 
|------------------------------------------------------------------------------------|| 
|------10-------10--------11------11-----------------10--------10----------10-------o|| 
|------------------------------------------------------------------------------------|| 


    H.                                                         S    a   E. 
|--------------------------------------------------------------------------------------| 
|--------------------------------------------------------------------------------------| 
|-^12--------------------------------------------------------^12--(12)s10--------------| 
|--------------------------------------------------------------------------------------| 
|-^10--------------------------------------------------------^10--(10)s=8--------------| 
|--------------------------------------------------------------------------------------| 
| 
|   |---------------3----------------|        |------------------3------------------| 
|   E        S   E   S   E   S   E   S        E   S   E   S    E            S   E   S 
|--------------------------------------------------------------------------------------| 
|--(3)----------------------------------------------------4---(4)----------------------| 
|--(3)-------5--(5)----------5--(5)---------------5--(5)--5---(5)-------------------5--| 
|--(3)-----------5---5--(5)--5--(5)--5-------(5)--5--(5)--5---(5)-----------5--(5)--5--| 
|---3-------(3)--3--(3)--3--(3)--3--(3)-------3--(3)--3--(3)---3-----------(3)--3--(3)-| 
|--------------------------------------------------------------------------------------| 
| 
|   |---------------------------------------3---------------------------------------| 
|   E    a   S   E   S   E   S   E   S    a   E   S   E   S    E            S   E   S 
|--------------------------------------------------------------------------------------| 
|--------------------------------------------------------------------------------------| 
|--12--(12)s10------10------10------12--(12)s10--10------10----------------10------10--| 
|--------------------------------------------------------------------------------------| 
|--10--(10)s=8---8-------8-------8--10--(10)s=8-------8--------8----------------8------| 
|--------------------------------------------------------------------------------------| 


    a   Q.                           +S  S            E.           a   S       E        a   E 
|--------------------------------------------------------------------------------------------------| 
|--------------------------------------------------------------------------------------------------| 
|-(10)s12---------------------------(12)------------^12----------(12)s13-----^13------(13)s15------| 
|--------------------------------------------------------------------------------------------------| 
|--(8)s10---------------------------(10)------------^10----------(10)s11-----^11------(11)s13------| 
|--------------------------------------------------------------------------------------------------| 
| 
|       |-----------------3-----------------|         |--------------------3--------------------| 
|       E        S   E   S   E   S    E     S         E   S   E           S    E   S        E   S 
|--------------------------------------------------------------------------------------------------| 
|-------4-----------------------------------------------------------------4---(4)---------------4--| 
|------(5)-------5--(5)----------5---(5)------------------5--(5)----------5---(5)--5-------(5)--5--| 
|------(5)-------5--(5)--5--(5)--5---(5)----5--------(5)--5--(5)----------5---(5)--5-------(5)--5--| 
|-------3-------(3)--3--(3)--3--(3)---3----(3)--------3--(3)--3----------(3)---3--(3)-------3--(3)-| 
|--------------------------------------------------------------------------------------------------| 
| 
|       |-------------------------------------------3-------------------------------------------| 
|       E    a   S   E   S   E   S    E     S    a    E   S   E           S    E   S        E   S 
|--------------------------------------------------------------------------------------------------| 
|--------------------------------------------------------------------------------------------------| 
|------12--(12)s10------10------10---------12--(12)s=10--10--------------10-------10-----------10--| 
|--------------------------------------------------------------------------------------------------| 
|------10--(10)s=8---8-------8--------8----10--(10)s==8-------8----------------8------------8------| 
|--------------------------------------------------------------------------------------------------| 


    H                                          Q.                       S    a   S 
|--------------------------------------------------------------------------------------| 
|--------------------------------------------------------------------------------------| 
|-^15----------------------------------------^13----------------------^15--(15)s12-----| 
|--------------------------------------------------------------------------------------| 
|-^13----------------------------------------^11----------------------^13--(13)s10-----| 
|--------------------------------------------------------------------------------------| 
| 
|   |---------------3----------------|         |-----------------3------------------| 
|   E        S   E   S   E   S   E   S         E   S   E   S   E   S    E           S 
|--------------------------------------------------------------------------------------| 
|--(4)-----------------------------------------------------3--(3)--3---(3)----------3--| 
|--(5)-------5--(5)--5--(5)--5--(5)--5--------(5)--5--(5)--5--(5)--5---(5)----------5--| 
|--(5)-------5--(5)--5--(5)--5--(5)--5--------(5)--5--(5)--5--(5)--5---(5)----------5--| 
|--------------------------------------------------------------------------------------| 
|---4-------(4)--4--(4)--4--(4)--4--(4)--------4--(4)--4--(4)--4--(4)---4----------(4)-| 
| 
|   |---------------------------------------3---------------------------------------| 
|   E    a   S   E   S   E   S   E   S    a    E   S   E   S   E   S    E           S 
|--------------------------------------------------------------------------------------| 
|--------------------------------------------------------------------------------------| 
|--12--(12)s10------10------10------12--(12)s=10--10------10------10---------------10--| 
|--------------------------------------------------------------------------------------| 
|--10--(10)s=8---8-------8-------8--10--(10)s==8-------8-------8--------8--------------| 
|--------------------------------------------------------------------------------------| 


    H                               Q.                      a   E 
|-----------------------------------------------------------------------| 
|-----------------------------------------------------------------------| 
|-^12------------------------------^7----------------------(7)s12-------| 
|-----------------------------------------------------------------------| 
|-^10------------------------------^5----------------------(5)s10-------| 
|-----------------------------------------------------------------------| 
| 
|   |-------------3-------------|   |---------------3---------------| 
|   E   S   E   S   E   S   E   S   E   S   E   S   E   S       E   S 
|-----------------------------------------------------------------------| 
|--(3)------------------------------------------3--(3)--------------3---| 
|--(5)----------3--(3)----------3--(3)----------3--(3)--3------(3)--3---| 
|--(5)--3--(3)----------3--(3)----------3--(3)--3--(3)--3------(3)--3---| 
|---1--(1)--1--(1)--1--(1)--1--(1)--1--(1)--1--(1)--1--(1)------1--(1)--| 
|-----------------------------------------------------------------------| 
| 
|   |-------------------------------3-------------------------------| 
|   E   S   E   S   E   S   E   S   E   S   E   S   E   S       E   S 
|-----------------------------------------------------------------------| 
|-----------------------------------------------------------------------| 
|-------8-------8-------8-------8-------8-------8-------8-----------8---| 
|-----------------------------------------------------------------------| 
|---6-------6-------6-------6-------6-------6-------6-----------6-------| 
|-----------------------------------------------------------------------| 


    H.                                                         S    a   E. 
|---------------------------------------------------------------------------------------| 
|---------------------------------------------------------------------------------------| 
|-^12--------------------------------------------------------^12--(12)s10---------------| 
|---------------------------------------------------------------------------------------| 
|-^10--------------------------------------------------------^10--(10)s=8---------------| 
|---------------------------------------------------------------------------------------| 
| 
|   |----------------3-----------------|    |-------------------3--------------------| 
|   E   S   E   S   E        S   E     S    E    S    E   S    E            S    E   S 
|---------------------------------------------------------------------------------------| 
|--(3)----------------------------------------------------4---(4)-----------------------| 
|--(3)--5--(5)---------------5--(5)--------------5---(5)--5---(5)--------------------5--| 
|--(3)------5---5--(5)-------5--(5)----5---(5)---5---(5)--5---(5)-----------5---(5)--5--| 
|---3--(3)--3--(3)--3-------(3)--3----(3)---3---(3)---3--(3)---3-----------(3)---3--(3)-| 
|---------------------------------------------------------------------------------------| 
| 
|   |---------------------------------------3----------------------------------------| 
|   E   S   E   S   E    a   S   E     S    E    S    E   S    E            S    E   S 
|---------------------------------------------------------------------------------------| 
|---------------------------------------------------------------------------------------| 
|-------8------10--12--(12)s10--10---/15--(15)-\12--(12)-10--(10)----------10--(10)-10--| 
|---------------------------------------------------------------------------------------| 
|---6--(6)-/8---8--10--(10)s=8--(8)-/(13)--13--------10--------8-----------(8)---8--(8)-| 
|---------------------------------------------------------------------------------------| 


    a   Q.                           +S  S         E.             a   S       E        a    E 
|----------------------------------------------------------------------------------------------------| 
|----------------------------------------------------------------------------------------------------| 
|-(10)s12---------------------------(12)---------^12------------(12)s13-----^13------(13)s=15--------| 
|----------------------------------------------------------------------------------------------------| 
|--(8)s10---------------------------(10)---------^10------------(10)s11-----^11------(11)s=13--------| 
|----------------------------------------------------------------------------------------------------| 
| 
|       |------------------3------------------|    |---------------------3----------------------| 
|       E   S   E   S   E        S    E       S    E    S    E           S    E   S         E   S 
|----------------------------------------------------------------------------------------------------| 
|-------4----------------------------------------------------------------4---(4)----------------4----| 
|------(5)--5--(5)---------------5---(5)----------------5---(5)----------5---(5)--5--------(5)--5----| 
|------(5)--5--(5)--5--(5)-------5---(5)------5---(5)---5---(5)----------5---(5)--5--------(5)--5----| 
|-------3--(3)--3--(3)--3-------(3)---3------(3)---3---(3)---3----------(3)---3--(3)--------3--(3)---| 
|----------------------------------------------------------------------------------------------------| 
| 
|       |-------------------------------------------3-------------------------------------------| 
|       E   S   E   S   E    a   S    E       S    E    S    E           S    E   S         E   S 
|----------------------------------------------------------------------------------------------------| 
|----------------------------------------------------------------------------------------------------| 
|-----------8------10--12--(12)s10---10-----/15--(15)-\12--(12)---------10--(10)-10-------(10)-10----| 
|----------------------------------------------------------------------------------------------------| 
|-------6--(6)-/8---8--10--(10)s=8---(8)---/(13)--13--------10----------------8--(8)--------8--(8)---| 
|----------------------------------------------------------------------------------------------------| 


    H                               Q.                       S    a   S 
|---------------------------------------------------------------------------| 
|---------------------------------------------------------------------------| 
|-^15-----------------------------^13----------------------^15--(15)s12-----| 
|---------------------------------------------------------------------------| 
|-^13-----------------------------^11----------------------^13--(13)s10-----| 
|---------------------------------------------------------------------------| 
| 
|   |-------------3-------------|   |-----------------3------------------| 
|   E   S   E   S   E   S   E   S   E   S   E   S   E   S    E           S 
|---------------------------------------------------------------------------| 
|--(4)------------------------------------------3--(3)--3---(3)----------3--| 
|--(5)--5--(5)--5--(5)--5--(5)--5--(5)--5--(5)--5--(5)--5---(5)----------5--| 
|--(5)--5--(5)--5--(5)--5--(5)--5--(5)--5--(5)--5--(5)--5---(5)----------5--| 
|---------------------------------------------------------------------------| 
|---4--(4)--4--(4)--4--(4)--4--(4)--4--(4)--4--(4)--4--(4)---4----------(4)-| 
| 
|   |---------------------------------3----------------------------------| 
|   E   S   E   S   E   S   E   S   E   S   E   S   E   S    E           S 
|---------------------------------------------------------------------------| 
|---------------------------------------------------------------------------| 
|------12------12------13------13s=12--12------12------12---------------12--| 
|---------------------------------------------------------------------------| 
|--10------10------11------11--------------10------10-------10--------------| 
|---------------------------------------------------------------------------| 


    H                              H 
|-----------------------------------------------------------------| 
|-----------------------------------------------------------------| 
|-^12-----------------------------^7------------------------------| 
|-----------------------------------------------------------------| 
|-^10-----------------------------^5------------------------------| 
|-----------------------------------------------------------------| 
| 
|   |-------------3-------------|  |-------------3-------------| 
|   E   S   E   S   E   S   E   S  E   S   E   S   E   S   E   S 
|-----------------------------------------------------------------| 
|--(3)-----------------------------------------3--(3)----------3--| 
|--(5)----------3--(3)----------3-(3)----------3--(3)--3--(3)--3--| 
|--(5)--3--(3)----------3--(3)---------3--(3)--3--(3)--3--(3)--3--| 
|---1--(1)--1--(1)--1--(1)--1--(1)-1--(1)--1--(1)--1--(1)--1--(1)-| 
|-----------------------------------------------------------------| 
| 
|   |----------------------------3-----------------------------| 
|   E   S   E   S   E   S   E   S  E   S   E   S   E   S   E   S 
|-----------------------------------------------------------------| 
|-----------------------------------------------------------------| 
|------12------12------13------13s12--12------12------12------12--| 
|-----------------------------------------------------------------| 
|--10------10------11------11-------------10------10------10------| 
|-----------------------------------------------------------------| 


 Theme Intro 
   W                                 W 
|----------------------------------|---------------------------------| 
|----------------------------------|---------------------------------| 
|----------------------------------|---------------------------------| 
|----------------------------------|---------------------------------| 
|----------------------------------|---------------------------------| 
|----------------------------------|---------------------------------| 
| 
|  |--------------3--------------|   |--------------3--------------| 
|  E S E S E S E S E S E S E S E S   E S E S E S E S E S E S E S E S 
|----------------------------------|---------------------------------| 
|----8---8---8---8---8---8---8---8-|-------------------9---9---9---9-| 
|----8---8---8---8---8---8---8---8-|---7---7---7---7---7---7---7---7-| 
|----------------------------------|---8---8---8---8---8---8---8---8-| 
|--6---6---6---6---6---6---6---6---|---------------------------------| 
|----------------------------------|-6---6---6---6---6---6---6---6---| 
| 
|  > 
|  W                                 W 
|----------------------------------|---------------------------------| 
|----------------------------------|---------------------------------| 
|-12-------------------------------|---------------------------------| 
|----------------------------------|---------------------------------| 
|----------------------------------|---------------------------------| 
|----------------------------------|---------------------------------| 


  W                                 W 
|---------------------------------|---------------------------------| 
|---------------------------------|---------------------------------| 
|---------------------------------|---------------------------------| 
|---------------------------------|---------------------------------| 
|---------------------------------|---------------------------------| 
|---------------------------------|---------------------------------| 
| 
| |--------------3--------------|   |--------------3--------------| 
| E S E S E S E S E S E S E S E S   E S E S E S E S E S E S E S E S 
|---------------------------------|---------------------------------| 
|---4---4---4---4---3---3---3---3-|---3---3---3---3---3---3---3---3-| 
|---5---5---5---5---5---5---5---5-|---3---3---3---3---3---3---3---3-| 
|---------------------------------|---------------------------------| 
|-3---3---3---3---3---3---3---3---|---------------------------------| 
|---------------------------------|-3---3---3---3---3---3---3---3---| 
| 
| W                                 W 
|---------------------------------|---------------------------------| 
|---------------------------------|---------------------------------| 
|---------------------------------|---------------------------------| 
|---------------------------------|---------------------------------| 
|---------------------------------|---------------------------------| 
|---------------------------------|---------------------------------| 


   Q        Q        E    +E     E    E 
|-----------------------------------------| 
|-----------------------------------------| 
|-----------------------------------------| 
|-10-------12-------13---(13)S==18---17---| 
|-----------------------------------------| 
|-----------------------------------------| 
| 
|  |-----------------3------------------| 
|  E S E S  E S E S  E S   E  S  E S  E S 
|-----------------------------------------| 
|----4---4----4---4----4------4----4----4-| 
|----5---5----5---5----5------5----5----5-| 
|-----------------------------------------| 
|-----------------------------------------| 
|--4---4----4---4----4-----4-----4----4---| 
| 
|  W 
|-----------------------------------------| 
|-----------------------------------------| 
|-----------------------------------------| 
|-----------------------------------------| 
|-----------------------------------------| 
|-----------------------------------------| 


   +H.                        E    E 
|--------------------------------------| 
|--------------------------------------| 
|--------------------------------------| 
|-(17)-----------------------18---15---| 
|--------------------------------------| 
|--------------------------------------| 
| 
|   |---------------3----------------| 
|   E  S E S E S E S E S E S  E S  E S 
|--------------------------------------| 
|------8---8---8---8---8---8----8----8-| 
|------8---8---8---8---8---8----8----8-| 
|--------------------------------------| 
|---6----6---6---6---6---6----6----6---| 
|--------------------------------------| 
| 
|   W 
|--------------------------------------| 
|--------------------------------------| 
|--------------------------------------| 
|--------------------------------------| 
|--------------------------------------| 
|--------------------------------------| 


  Gtr IV 
    W                                      W 
   +H.                        E    E      +H.                        Q 
|--------------------------------------|-------------------------------------| 
|--------------------------------------|-------------------------------------| 
|--------------------------------------|-------------------------------------| 
|-(15)-----------------------18---13---|-(13)-----------------------12-------| 
|--------------------------------------|-------------------------------------| 
|--------------------------------------|-------------------------------------| 
| 
|   |---------------3----------------|     |---------------3---------------| 
|   E  S E S E S E S E S E S  E S  E S     E  S E S E S E S E S E S  E S E S 
|--------------------------------------|-------------------------------------| 
|----------------------9---9----9----9-|------4---4---4---4---3---3----3---3-| 
|------7---7---7---7---7---7----7----7-|------5---5---5---5---5---5----5---5-| 
|------8---8---8---8---8---8----8----8-|-------------------------------------| 
|--------------------------------------|---3----3---3---3---3---3----3---3---| 
|---6----6---6---6---6---6----6----6---|-------------------------------------| 
| 
|   W                                      W 
|--------------------------------------|-------------------------------------| 
|--------------------------------------|-------------------------------------| 
|--------------------------------------|-------------------------------------| 
|--------------------------------------|-------------------------------------| 
|--------------------------------------|-------------------------------------| 
|--------------------------------------|-------------------------------------| 


  EbXIII           Eb       Dm        Cm        Bb 
                    |----------------3-----------------| 
   H                S  S  S   S  S  S   S  S  S  S  S  S 
   |                |  |  |   |  |  |   |  |  |  |  |  | 
   /                /  /  /   /  /  /   /  /  /  /  /  / 

                    |----------------3-----------------| 
   H                S  S  S   S  S  S   S  S  S  S  S  S 
|------------------15-15-15--13-13-13--11-11-11-10-10-10-| 
|------------------16-16-16--15-15-15--13-13-13-11-11-11-| 
|--------------------------------------------------------| 
|-13-----------------------------------------------------| 
|--------------------------------------------------------| 
|--------------------------------------------------------| 
| 
|  |-------------------------3-------------------------| 
|  E S E S E S E S  E     S   E     S   E     S  E     S 
|--------------------------------------------------------| 
|----8---8---8---8--------8---------8---------8--------8-| 
|----8---8---8---8--------8---------8---------8--------8-| 
|--------------------------------------------------------| 
|--6---6---6---6----6---------6---------6--------6-------| 
|--------------------------------------------------------| 
| 
|  H                E         e         e        e 
|--------------------------------------------------------| 
|--------------------------------------------------------| 
|---------------------------^12-------^10-------^8-------| 
|--------------------------------------------------------| 
|---------------------------^10-------^-8-------^6-------| 
|--------------------------------------------------------| 


   Main Theme 
    Gm 
     W 
     | 
     / 

          |------3-------| 
     E    S  S  S  S  S  S  Q.                Q 
||------------------------------------------------------| 
||o-11---13-13-13-11-11-11------------------------------| 
||--12---------------------12---------------------------| 
||------------------------------------------/18---------| 
||o-----------------------------------------------------| 
||------------------------------------------------------| 
| 
|    |-----------------------3------------------------| 
|    E S  E     S  E     S  E  S  E S   E S   E S   E S 
||------------------------------------------------------| 
||o---------------------------------9-----9-----9-----9-| 
||-----7--------7--------7-----7----7-----7-----7-----7-| 
||-----8--------8--------8-----8----8-----8-----8-----8-| 
||o-----------------------------------------------------| 
||---6----6--------6--------6-----6-----6-----6-----6---| 
| 
|    e    e        e        e     e     e     e     e 
||------------------------------------------------------| 
||o-----------------------------------------------------| 
||--^7---^7-------^7-------^7----^7---^13---^13---^10---| 
||------------------------------------------------------| 
||o-^5---^5-------^5-------^5----^5---^11---^11---^-8---| 
||------------------------------------------------------| 


    W 
    E     E     E     Q.                 E     a    E 
|-------------------------------------------------------| 
|-------------------------------------------------------| 
|-------------------------------------------------------| 
|--17----18----18----17-----------------18---(18)s=15---| 
|-------------------------------------------------------| 
|-------------------------------------------------------| 
| 
|   |------------------------3------------------------| 
|   E S   E S   E S   E  S   E S   E S   E S        E S 
|-------------------------------------------------------| 
|-----4-----4-----4------4-----3-----3-----3----------3-| 
|-----5-----5-----5------5-----5-----5-----5----------5-| 
|-------------------------------------------------------| 
|---3-----3-----3-----3------3-----3-----3----------3---| 
|-------------------------------------------------------| 
| 
|   e     e     e     e      e     e     e          e 
|-------------------------------------------------------| 
|-------------------------------------------------------| 
|-^12---^12---^12---^12----^12---^15---^13--------^12---| 
|-------------------------------------------------------| 
|-^10---^10---^10---^10----^10---^13---^11--------^10---| 
|-------------------------------------------------------| 


    |------------3------------|                 |----3----| 
    E  E      E     E  E      E     E     E     E  E      E 
|-------------------------------------------------------------| 
|-------------------------------------------------------------| 
|-------------------------------------------------------------| 
|--15-15-----15----15-15-----15----15----15----15-15-----15---| 
|-------------------------------------------------------------| 
|-------------------------------------------------------------| 
| 
|   |---------------------------3---------------------------| 
|   E  S   E    S   E  S   E    S   E S   E S   E  S   E    S 
|-------------------------------------------------------------| 
|------4--------4------4--------4-----4-----4------4--------4-| 
|------5--------5------5--------5-----5-----5------5--------5-| 
|-------------------------------------------------------------| 
|-------------------------------------------------------------| 
|---4------4--------4------4--------4-----4-----4------4------| 
| 
|   e      e        e      e        e     e     e      e 
|-------------------------------------------------------------| 
|-------------------------------------------------------------| 
|-^13----^13------^13----^13------^13---^15---^13----^12------| 
|-------------------------------------------------------------| 
|-^11----^11------^11----^11------^11---^13---^11----^10------| 
|-------------------------------------------------------------| 


    Q           E     E     E    +E      E     E 
|---------------------------------------------------| 
|---------------------------------------------------| 
|---------------------------------------------------| 
|--10----------12p===10----13---(13)S===18----17----| 
|---------------------------------------------------| 
|---------------------------------------------------| 
| 
|   |---------------------3----------------------| 
|   E S   E S   E S   E S   E S   E  S   E S   E S 
|---------------------------------------------------| 
|-----4-----4-----4-----4-----4------4-----4-----4--| 
|-----5-----5-----5-----5-----5------5-----5-----5--| 
|---------------------------------------------------| 
|---------------------------------------------------| 
|---4-----4-----4-----4-----4-----4------4-----4----| 
| 
|   e     e     e     e     e     e      e     e 
|---------------------------------------------------| 
|---------------------------------------------------| 
|-^12---^12---^12---^12---^12---^13----^13---^12----| 
|---------------------------------------------------| 
|-^10---^10---^10---^10---^10---^11----^11---^10----| 
|---------------------------------------------------| 


   +E      E     E     Q           E     E     E 
|--------------------------------------------------| 
|--------------------------------------------------| 
|--------------------------------------------------| 
|-(17)----18----18----17----------18----18----15---| 
|--------------------------------------------------| 
|--------------------------------------------------| 
| 
|   |---------------------3----------------------| 
|   E  S   E S   E S   E S   E S   E S   E S   E S 
|--------------------------------------------------| 
|------8-----8-----8-----8-----8-----8-----8-----8-| 
|------8-----8-----8-----8-----8-----8-----8-----8-| 
|--------------------------------------------------| 
|---6------6-----6-----6-----6-----6-----6-----6---| 
|--------------------------------------------------| 
| 
|   e      e     e     e     e     e     e     e 
|--------------------------------------------------| 
|--------------------------------------------------| 
|-^12----^12---^12---^12---^12---^13---^13---^12---| 
|--------------------------------------------------| 
|-^10----^10---^10---^10---^10---^11---^11---^10---| 
|--------------------------------------------------| 


   +E      E     E     Q           E    E     E 
|-------------------------------------------------| 
|-------------------------------------------------| 
|-------------------------------------------------| 
|-(15)----15----15----15----------15---15----13---| 
|-------------------------------------------------| 
|-------------------------------------------------| 
| 
|   |---------------------3---------------------| 
|   E  S   E S   E S   E S   E S   E S  E S   E S 
|-------------------------------------------------| 
|------------------------------9-----9----9-----9-| 
|------7-----7-----7-----7-----7-----7----7-----7-| 
|------8-----8-----8-----8-----8-----8----8-----8-| 
|-------------------------------------------------| 
|---6------6-----6-----6-----6-----6----6-----6---| 
| 
|   e      e     e     e     e     e    e     e 
|-------------------------------------------------| 
|-------------------------------------------------| 
|-^12----^12---^12---^12---^12---^12---^8---^10---| 
|-------------------------------------------------| 
|-^10----^10---^10---^10---^10---^-8---^6---^-8---| 
|-------------------------------------------------| 


  Gtr IV 
    W 
   +E      E.        E.           E.        S     E    E 
|----------------------------------------------------------| 
|----------------------------------------------------------| 
|----------------------------------------------------------| 
|-(13)----13--------13-----------13--------13----12---13---| 
|----------------------------------------------------------| 
|----------------------------------------------------------| 
| 
|   |-------------------------3--------------------------| 
|   E  S   E  S   E     S   E S   E  S   E    S   E S  E S 
|----------------------------------------------------------| 
|------4------4---------4-----4------3--------3-----3----3-| 
|------5------5---------5-----5------5--------5-----5----5-| 
|----------------------------------------------------------| 
|---3------3------3---------3-----3------3--------3----3---| 
|----------------------------------------------------------| 
| 
|   e      e      e         e     e      e        e    e 
|----------------------------------------------------------| 
|----------------------------------------------------------| 
|-^10----^10----^10-------^10---^10----^12------^10---^8---| 
|----------------------------------------------------------| 
|-^-8----^-8----^-8-------^-8---^-8----^10------^-8---^6---| 
|----------------------------------------------------------| 


  1.,2.,3.                                                      4. 
  EbXIII              Eb       Dm        Cm        Bb 
                       |----------------3-----------------| 
   H                   S  S  S   S  S  S   S  S  S  S  S  S      W 
   |                   |  |  |   |  |  |   |  |  |  |  |  | 
   /                   /  /  /   /  /  /   /  /  /  /  /  / 

                       |----------------3-----------------|      |------3-------| 
   E    E    E    E    S  S  S   S  S  S   S  S  S  S  S  S  4x  E  E  E  E  E  E  H 
|---------------------15-15-15--13-13-13--11-11-11-10-10-10--||-------------------------| 
|---------------------16-16-16--15-15-15--13-13-13-11-11-11-o||-------------------------| 
|------------------------------------------------------------||-12-12-12-12-12-12-12----| 
|-13---12---13---13------------------------------------------||-13-13-13-13-13-13-13----| 
|-----------------------------------------------------------o||-------------------------| 
|------------------------------------------------------------||-------------------------| 
| 
|  |--------------------------3---------------------------|      |------3-------| 
|  E S  E S  E S  E S  E     S   E     S   E     S  E     S  4x  E  E  E  E  E  E  H 
|------------------------------------------------------------||-------------------------| 
|----8----8----8----8--------8---------8---------8--------8-o||-------------------------| 
|----8----8----8----8--------8---------8---------8--------8--||--7--7--7--7--7--7--7----| 
|------------------------------------------------------------||--8--8--8--8--8--8--8----| 
|--6----6----6----6----6---------6---------6--------6-------o||-------------------------| 
|------------------------------------------------------------||--6--6--6--6--6--6--6----| 
| 
|                                                                |------3-------| 
|  e    e    e    e    e         e         e        e        4x  E  E  E  E  E  E  H 
|------------------------------------------------------------||-------------------------| 
|-----------------------------------------------------------o||-11-11-11-11-11-11-11----| 
|-^8---^8---^8---^8---^8-------^12-------^10-------^8--------||-12-12-12-12-12-12-12----| 
|------------------------------------------------------------||-------------------------| 
|-^6---^6---^6---^6---^6-------^10-------^-8-------^6-------o||-10-10-10-10-10-10-10----| 
|------------------------------------------------------------||-------------------------| 


 Reprise 
    H.                                               S    a   E. 
|----------------------------------------------------------------------------| 
|----------------------------------------------------------------------------| 
|-^12----------------------------------------------^12--(12)s10--------------| 
|----------------------------------------------------------------------------| 
|-^10----------------------------------------------^10--(10)s=8--------------| 
|----------------------------------------------------------------------------| 
| 
|   |-------------3-------------|   |------------------3------------------| 
|   E   S   E   S   E   S   E   S   E   S   E   S    E            S   E   S 
|----------------------------------------------------------------------------| 
|-----------------------------------------------4---(4)-------------------4--| 
|-------5--(5)----------5--(5)----------5--(5)--5---(5)-------------------5--| 
|-----------5---5--(5)--5--(5)--5--(5)--5--(5)--5---(5)-----------5--(5)--5--| 
|---3--(3)--3--(3)--3--(3)--3--(3)--3--(3)--3--(3)---3-----------(3)--3--(3)-| 
|----------------------------------------------------------------------------| 


    a   Q.                      +S  S       E.           a   S       E        a   E 
|-----------------------------------------------------------------------------------------| 
|-----------------------------------------------------------------------------------------| 
|-(10)s12----------------------(12)-------^12----------(12)s13-----^13------(13)s12-------| 
|-----------------------------------------------------------------------------------------| 
|--(8)s10----------------------(10)-------^10----------(10)s11-----^11------(11)s10-------| 
|-----------------------------------------------------------------------------------------| 
| 
|       |--------------3---------------|    |--------------------3--------------------| 
|       E   S   E   S   E   S    E     S    E   S   E           S    E   S        E   S 
|-----------------------------------------------------------------------------------------| 
|------(4)------------------------------------------------------4---(4)---------------4---| 
|------(5)--5--(5)----------5---(5)-------------5--(5)----------5---(5)--5-------(5)--5---| 
|------(5)--5--(5)--5--(5)--5---(5)----5---(5)--5--(5)----------5---(5)--5-------(5)--5---| 
|-------3--(3)--3--(3)--3--(3)---3----(3)---3--(3)--3----------(3)---3--(3)-------3--(3)--| 
|-----------------------------------------------------------------------------------------| 


    H.                                               S    a   E. 
|----------------------------------------------------------------------------| 
|----------------------------------------------------------------------------| 
|-^12----------------------------------------------^12--(12)s10--------------| 
|----------------------------------------------------------------------------| 
|-^10----------------------------------------------^10--(10)s=8--------------| 
|----------------------------------------------------------------------------| 
| 
|   |-------------3-------------|   |------------------3------------------| 
|   E   S   E   S   E   S   E   S   E   S   E   S    E            S   E   S 
|----------------------------------------------------------------------------| 
|-----------------------------------------------3---(3)-----------3--(3)--3--| 
|-------5--(5)--5--(5)--5--(5)--5--(5)--5--(5)--5---(5)-----------5--(5)--5--| 
|-------5--(5)--5--(5)--5--(5)--5--(5)--5--(5)--5---(5)-----------5--(5)--5--| 
|----------------------------------------------------------------------------| 
|---4--(4)--4--(4)--4--(4)--4--(4)--4--(4)--4--(4)---4-----------(4)--4--(4)-| 


    a   E..             T  Q               a   Q              Q 
|-----------------------------------------------------------------| 
|-----------------------------------------------------------------| 
|-(10)s=8-----------------^8--------------(8)s=7------------------| 
|-----------------------------------------------------------------| 
|--(8)s=6-----------------^6--------------(6)s=5------------------| 
|-----------------------------------------------------------------| 
| 
|       |--------------3---------------|       |-----3-----| 
|       E    S   E   S     E   S   E   S       E   S   E   S  Q 
|-----------------------------------------------------------------| 
|------(3)-------------------------------------------------3------| 
|------(5)-----------3----(3)----------3------(3)----------3------| 
|------(5)---3--(3)------------3--(3)--------------3--(3)--3------| 
|-------1---(1)--1--(1)----1--(1)--1--(1)------1--(1)--1--(1)-----| 
|-----------------------------------------------------------------| 


    H.                                                         S    a   E. 
|---------------------------------------------------------------------------------------| 
|---------------------------------------------------------------------------------------| 
|-^12--------------------------------------------------------^12--(12)s10---------------| 
|---------------------------------------------------------------------------------------| 
|-^10--------------------------------------------------------^10--(10)s=8---------------| 
|---------------------------------------------------------------------------------------| 
| 
|   |----------------3-----------------|    |-------------------3--------------------| 
|   E   S   E   S   E        S   E     S    E    S    E   S    E            S    E   S 
|---------------------------------------------------------------------------------------| 
|---------------------------------------------------------4---(4)-----------------------| 
|-------5--(5)---------------5--(5)--------------5---(5)--5---(5)--------------------5--| 
|-----------5---5--(5)-------5--(5)----5---(5)---5---(5)--5---(5)-----------5---(5)--5--| 
|---3--(3)--3--(3)--3-------(3)--3----(3)---3---(3)---3--(3)---3-----------(3)---3--(3)-| 
|---------------------------------------------------------------------------------------| 
| 
| Gtr III 
|   |---------------------------------------3----------------------------------------| 
|   E   S   E   S   E    a   S   E     S    E    S    E   S    E            S    E   S 
|---------------------------------------------------------------------------------------| 
|---------------------------------------------------------------------------------------| 
|-------8------10--12--(12)s10--10---/15--(15)-\12--(12)-10--(10)----------10--(10)-10--| 
|---------------------------------------------------------------------------------------| 
|---6--(6)-/8---8--10--(10)s=8--(8)-/(13)--13--------10--------8-----------(8)---8--(8)-| 
|---------------------------------------------------------------------------------------| 


    a   Q.                           +S  S         E.             a   S       E        a    E 
|----------------------------------------------------------------------------------------------------| 
|----------------------------------------------------------------------------------------------------| 
|-(10)s12---------------------------(12)---------^12------------(12)s13-----^13------(13)s=15--------| 
|----------------------------------------------------------------------------------------------------| 
|--(8)s10---------------------------(10)---------^10------------(10)s11-----^11------(11)s=13--------| 
|----------------------------------------------------------------------------------------------------| 
| 
|       |------------------3------------------|    |---------------------3----------------------| 
|       E   S   E   S   E        S    E       S    E    S    E           S    E   S         E   S 
|----------------------------------------------------------------------------------------------------| 
|-------4----------------------------------------------------------------4---(4)----------------4----| 
|------(5)--5--(5)---------------5---(5)----------------5---(5)----------5---(5)--5--------(5)--5----| 
|------(5)--5--(5)--5--(5)-------5---(5)------5---(5)---5---(5)----------5---(5)--5--------(5)--5----| 
|-------3--(3)--3--(3)--3-------(3)---3------(3)---3---(3)---3----------(3)---3--(3)--------3--(3)---| 
|----------------------------------------------------------------------------------------------------| 
| 
|       |-------------------------------------------3-------------------------------------------| 
|       E   S   E   S   E    a   S    E       S    E    S    E           S    E   S         E   S 
|----------------------------------------------------------------------------------------------------| 
|----------------------------------------------------------------------------------------------------| 
|-----------8------10--12--(12)s10---10-----/15--(15)-\12--(12)---------10--(10)-10-------(10)-10----| 
|----------------------------------------------------------------------------------------------------| 
|-------6--(6)-/8---8--10--(10)s=8---(8)---/(13)--13--------10----------------8--(8)--------8--(8)---| 
|----------------------------------------------------------------------------------------------------| 


    H                               Q.                       S    a   S 
|---------------------------------------------------------------------------| 
|---------------------------------------------------------------------------| 
|-^15-----------------------------^13----------------------^15--(15)s12-----| 
|---------------------------------------------------------------------------| 
|-^13-----------------------------^11----------------------^13--(13)s10-----| 
|---------------------------------------------------------------------------| 
| 
|   |-------------3-------------|   |-----------------3------------------| 
|   E   S   E   S   E   S   E   S   E   S   E   S   E   S    E           S 
|---------------------------------------------------------------------------| 
|--(4)------------------------------------------3--(3)--3---(3)----------3--| 
|--(5)--5--(5)--5--(5)--5--(5)--5--(5)--5--(5)--5--(5)--5---(5)----------5--| 
|--(5)--5--(5)--5--(5)--5--(5)--5--(5)--5--(5)--5--(5)--5---(5)----------5--| 
|---------------------------------------------------------------------------| 
|---4--(4)--4--(4)--4--(4)--4--(4)--4--(4)--4--(4)--4--(4)---4----------(4)-| 
| 
|   |---------------------------------3----------------------------------| 
|   E   S   E   S   E   S   E   S   E   S   E   S   E   S    E           S 
|---------------------------------------------------------------------------| 
|---------------------------------------------------------------------------| 
|------12------12------13------13s=12--12------12------12---------------12--| 
|---------------------------------------------------------------------------| 
|--10------10------11------11--------------10------10-------10--------------| 
|---------------------------------------------------------------------------| 


    H                              H 
|-----------------------------------------------------------------| 
|-----------------------------------------------------------------| 
|-^12-----------------------------^7------------------------------| 
|-----------------------------------------------------------------| 
|-^10-----------------------------^5------------------------------| 
|-----------------------------------------------------------------| 
| 
|   |-------------3-------------|  |-------------3-------------| 
|   E   S   E   S   E   S   E   S  E   S   E   S   E   S   E   S 
|-----------------------------------------------------------------| 
|--(3)-----------------------------------------3--(3)----------3--| 
|--(5)----------3--(3)----------3-(3)----------3--(3)--3--(3)--3--| 
|--(5)--3--(3)----------3--(3)---------3--(3)--3--(3)--3--(3)--3--| 
|---1--(1)--1--(1)--1--(1)--1--(1)-1--(1)--1--(1)--1--(1)--1--(1)-| 
|-----------------------------------------------------------------| 
| 
|   |----------------------------3-----------------------------| 
|   E   S   E   S   E   S   E   S  E   S   E   S   E   S   E   S 
|-----------------------------------------------------------------| 
|-----------------------------------------------------------------| 
|------12------12------13------13s12--12------12------12------12--| 
|-----------------------------------------------------------------| 
|--10------10------11------11-------------10------10------10------| 
|-----------------------------------------------------------------| 


 Piano Interlude 
  Q=78 
   W          W          W          W 
|-----------|----------|----------|------| 
|-----------|----------|----------|------| 
|--5--------|----------|----------|------| 
|-----------|----------|----------|------| 
|--3--------|----------|----------|------| 
|-----------|----------|----------|------| 
| 
|  W          W          W          W 
|-----------|----------|----------|------| 
|-----------|----------|----------|------| 
|--5--------|----------|----------|------| 
|--5--------|----------|----------|------| 
|--3--------|----------|----------|------| 
|-----------|----------|----------|------| 
| 
|  W          W          W          W 
|-----------|----------|----------|------| 
|-----------|----------|----------|------| 
|-12--------|----------|----------|------| 
|-----------|----------|----------|------| 
|-----------|----------|----------|------| 
|-----------|----------|----------|------| 


 Outro Part I 
  Gtr III 
                                                                    < 
  W                                  H..                            E 
|----------------------------------|------------------------------------| 
|----------------------------------|------------------------------------| 
|----------------------------------|-------------------------------15---| 
|----------------------------------|------------------------------------| 
|----------------------------------|------------------------------------| 
|----------------------------------|------------------------------------| 
| 
| Gtr II 
| |------3------| |------3-------|   |-------3-------| |------3-------| 
| E S E S E S E S E S E S  E S E S   E   S E S E S E S E S E S E S  E S 
|----------------------------------|---------6---------------3----------| 
|---3---3---3---3---3---3----6---6-|-----8-------8---8---4-------4----4-| 
|----------------------------------|------------------------------------| 
|----------------------------------|------------------------------------| 
|-------------------------/5---5---|-6-----6---6---6---3---3---3----3---| 
|-3---3---3---3---3---3------------|------------------------------------| 


   E    E    E    Q        E     E     E 
|------------------------------------------| 
|------15---16------------------18---------| 
|-15-------------17-------15---(15)---15---| 
|------------------------------------------| 
|------------------------------------------| 
|------------------------------------------| 
| 
|  |-------3--------| |--------3---------| 
|  E S  E S  E S  E S E S  E S   E  S  E S 
|------------------------------------------| 
|----3----3----3----3---3----3-------------| 
|-----------------------------------5----5-| 
|------------------------------------------| 
|------------------------------------------| 
|--3----3----3----3---3----3----/5-----5---| 


   +E     E     E     E    +E     E     E      E 
|---------------------------------------------------| 
|--------------18----------------------16----(16)---| 
|-(15)---------------15---(15)----------------15----| 
|--------15---(15)----------------------------------| 
|--------------------------------17---(17)----------| 
|---------------------------------------------------| 
| 
|   |---------3---------|   |----------3----------| 
|   E  S  E S   E  S  E S   E  S  E S   E  S   E  S 
|---------------------------------------------------| 
|-----------6-----------------------1---------------| 
|------7-----------7----7------2-----------2------2-| 
|---------------------------------------------------| 
|---------------------------------------------------| 
|--/6-----6-----6-----6----\1-----1-----1------1----| 


   +E     E    E    Q        E     E     E 
|--------------------------------------------| 
|--------15---16------------------18---------| 
|-(15)-------------17-------15---(15)---15---| 
|--------------------------------------------| 
|--------------------------------------------| 
|--------------------------------------------| 
| 
|   |--------3--------| |--------3---------| 
|   E  S  E S  E S  E S E S  E S   E  S  E S 
|--------------------------------------------| 
|------3----3----3----3---3----3------6----6-| 
|--------------------------------------------| 
|--------------------------------------------| 
|---------------------------------/5-----5---| 
|---3-----3----3----3---3----3---------------| 


   +E     E     E     E    +E     E     E      E 
|---------------------------------------------------| 
|--------------18----------------------16----(16)---| 
|-(15)---------------15---(15)----------------15----| 
|--------15---(15)----------------------------------| 
|--------------------------------17---(17)----------| 
|---------------------------------------------------| 
| 
|   |---------3---------|   |----------3----------| 
|   E  S  E S   E  S  E S   E  S  E S   E  S   E  S 
|-----------6-----------------------3---------------| 
|------8-----------8----8------4-----------4------4-| 
|---------------------------------------------------| 
|---------------------------------------------------| 
|---6-----6-----6-----6-----3-----3-----3------3----| 
|---------------------------------------------------| 


   +E     E    E    Q        E     E     E 
|--------------------------------------------| 
|--------15---16------------------18---------| 
|-(15)-------------17-------15---(15)---15---| 
|--------------------------------------------| 
|--------------------------------------------| 
|--------------------------------------------| 
| 
|   |--------3--------| |--------3---------| 
|   E  S  E S  E S  E S E S  E S   E  S  E S 
|--------------------------------------------| 
|------3----3----3----3---3----3-------------| 
|-------------------------------------5----5-| 
|--------------------------------------------| 
|--------------------------------------------| 
|---3-----3----3----3---3----3----/5-----5---| 


   +E     E     E     E    +E     E     E      E 
|---------------------------------------------------| 
|--------------18----------------------16----(16)---| 
|-(15)---------------15---(15)----------------15----| 
|--------15---(15)----------------------------------| 
|--------------------------------17---(17)----------| 
|---------------------------------------------------| 
| 
|   |---------3---------|   |----------3----------| 
|   E  S  E S   E  S  E S   E  S  E S   E  S   E  S 
|---------------------------------------------------| 
|-----------6-----------------------1---------------| 
|------7-----------7----7------2-----------2------2-| 
|---------------------------------------------------| 
|---------------------------------------------------| 
|--/6-----6-----6-----6----\1-----1-----1------1----| 


   +E     E    E    Q        E     E         E 
|----------------------------------------------------| 
|--------15---16------------------18-----------------| 
|-(15)-------------17-------15---(15)-------15-------| 
|----------------------------------------------------| 
|----------------------------------------------------| 
|----------------------------------------------------| 
| 
|   |--------3--------| |------------3-------------| 
|   E  S  E S  E S  E S E S  E S   E      S  E     S 
|----------------------------------------------------| 
|------3----3----3----3---3----3----------6--------6-| 
|----------------------------------------------------| 
|----------------------------------------------------| 
|---------------------------------/5---------5-------| 
|---3-----3----3----3---3----3-----------------------| 
| 
| Gtr I 
|                                  |-------3-------| 
|   H.                             S   S  S  S  S  S 
|----------------------------------------------------| 
|----------------------------------------------------| 
|---------------------------------12--12-12-12-12-12-| 
|----------------------------------------------------| 
|---------------------------------10--10-10-10-10-10-| 
|----------------------------------------------------| 


   +E      E         E      E     +E     E     E      E 
|-----------------------------------------------------------| 
|-------------------18------------------------16----(16)----| 
|-(15)---------------------15----(15)----------------15-----| 
|---------15-------(15)-------------------------------------| 
|---------------------------------------17---(17)-----------| 
|-----------------------------------------------------------| 
| 
|   |------------3-------------|   |----------3----------| 
|   E  S   E     S   E  S   E  S   E  S  E S   E  S   E  S 
|----------------6-------------------------3----------------| 
|------8----------------8------8------4-----------4------4--| 
|-----------------------------------------------------------| 
|-----------------------------------------------------------| 
|---6------6---------6------6------3-----3-----3------3-----| 
|-----------------------------------------------------------| 
| 
|   E     +S   S     e      Q.                 e      E 
|-----------------------------------------------------------| 
|-----------------------------------------------------------| 
|--12----(12)s10---^10----^12----------------^14----^15-----| 
|-----------------------------------------------------------| 
|--10----(10)s=8---^-8----^10----------------^12----^13-----| 
|-----------------------------------------------------------| 


   +E     E     E     Q         E     E         E 
|-------------------------------------------------------| 
|--------15----16--------------------18-----------------| 
|-(15)---------------17--------15---(15)-------15-------| 
|-------------------------------------------------------| 
|-------------------------------------------------------| 
|-------------------------------------------------------| 
| 
|   |---------3----------| |------------3-------------| 
|   E  S  E S   E S   E  S E S  E S   E      S  E     S 
|-------------------------------------------------------| 
|------3----3-----3------3---3----3---------------------| 
|--------------------------------------------5--------5-| 
|-------------------------------------------------------| 
|-------------------------------------------------------| 
|---3-----3-----3-----3----3----3----/5---------5-------| 
| 
|                                     |-------3-------| 
|  +Q           e     Q.              S   S  S  S  S  S 
|-------------------------------------------------------| 
|-------------------------------------------------------| 
|-(15)--------^17---^19--------------12--12-12-12-12-12-| 
|-------------------------------------------------------| 
|-(13)--------^15---^17--------------10--10-10-10-10-10-| 
|-------------------------------------------------------| 


   +E     E     E     E     +E     E     E      E 
|----------------------------------------------------| 
|--------------18-----------------------16----(16)---| 
|-(15)---------------15----(15)----------------15----| 
|--------15---(15)-----------------------------------| 
|---------------------------------17---(17)----------| 
|----------------------------------------------------| 
| 
|   |---------3----------|   |----------3----------| 
|   E  S  E S   E  S  E  S   E  S  E S   E  S   E  S 
|----------------------------------------------------| 
|-----------6------------------------1---------------| 
|------7-----------7-----7------2-----------2------2-| 
|----------------------------------------------------| 
|----------------------------------------------------| 
|--/6-----6-----6-----6-----\1-----1-----1------1----| 
| 
|   Q           e     Q.                 e      E 
|----------------------------------------------------| 
|----------------------------------------------------| 
|--12---------^10----^8----------------^10----^-7----| 
|----------------------------------------------------| 
|--10---------^-8----^6----------------^-8----^-5----| 
|----------------------------------------------------| 


   +E     E     E       Q        E      E         E 
|---------------------------------------------------------| 
|--------15----16----------------------18-----------------| 
|-(15)-----------------17-------15----(15)-------15-------| 
|---------------------------------------------------------| 
|---------------------------------------------------------| 
|---------------------------------------------------------| 
| 
|   |----------3----------| |-------------3-------------| 
|   E  S  E  S  E    S  E S E S  E  S   E      S  E     S 
|---------------------------------------------------------| 
|------3-----3-------3----3---3-----3----------6--------6-| 
|---------------------------------------------------------| 
|---------------------------------------------------------| 
|--------------------------------------/5---------5-------| 
|---3-----3-----3-------3---3----3------------------------| 
| 
|                                       |-------3-------| 
|  +E     E.      E.        E   +E      S   S  S  S  S  S 
|---------------------------------------------------------| 
|---------------------------------------------------------| 
|--(7)----7-------7---------7---(7)S===12--12-12-12-12-12-| 
|---------------------------------------------------------| 
|--(5)----5-------5---------5---(5)S===10--10-10-10-10-10-| 
|---------------------------------------------------------| 


   +E      E         E      E     +E     E     E      E 
|----------------------------------------------------------| 
|-------------------18------------------------16----(16)---| 
|-(15)---------------------15----(15)----------------15----| 
|---------15-------(15)------------------------------------| 
|---------------------------------------17---(17)----------| 
|----------------------------------------------------------| 
| 
|   |------------3-------------|   |----------3----------| 
|   E  S   E     S   E  S   E  S   E  S  E S   E  S   E  S 
|----------------6-------------------------3---------------| 
|------8----------------8------8------4-----------4------4-| 
|----------------------------------------------------------| 
|----------------------------------------------------------| 
|---6------6---------6------6------3-----3-----3------3----| 
|----------------------------------------------------------| 
| 
|   E     +S   S     e      Q.                 e      E 
|----------------------------------------------------------| 
|----------------------------------------------------------| 
|--12----(12)s10---^10----^12----------------^14----^15----| 
|----------------------------------------------------------| 
|--10----(10)s=8---^-8----^10----------------^12----^13----| 
|----------------------------------------------------------| 


   +E     E     E     Q         E       E         E 
|---------------------------------------------------------| 
|--------15----16----------------------18-----------------| 
|-(15)---------------17--------15-----(15)-------15-------| 
|---------------------------------------------------------| 
|---------------------------------------------------------| 
|---------------------------------------------------------| 
| 
|   |---------3---------| |--------------3--------------| 
|   E  S  E S   E S   E S E S   E   S   E      S  E     S 
|---------------------------------------------------------| 
|------3----3-----3-----3---3-------3---------------------| 
|----------------------------------------------5--------5-| 
|---------------------------------------------------------| 
|---------------------------------------------------------| 
|---3-----3-----3-----3---3-----3------/5---------5-------| 
| 
|                               |-----------3-----------| 
|  +Q           e     Q        +E   S   S   S  S  S  S  S 
|---------------------------------------------------------| 
|---------------------------------------------------------| 
|-(15)--------^17---^19-------(19)-12--12--12-12-12-12-12-| 
|---------------------------------------------------------| 
|-(13)--------^15---^17-------(17)-10--10--10-10-10-10-10-| 
|---------------------------------------------------------| 


   +E     E     E     E     +E     E     E      E 
|----------------------------------------------------| 
|--------------18-----------------------16----(16)---| 
|-(15)---------------15----(15)----------------15----| 
|--------15---(15)-----------------------------------| 
|---------------------------------17---(17)----------| 
|----------------------------------------------------| 
| 
|   |---------3----------|   |----------3----------| 
|   E  S  E S   E  S  E  S   E  S  E S   E  S   E  S 
|----------------------------------------------------| 
|-----------6------------------------1---------------| 
|------7-----------7-----7------2-----------2------2-| 
|----------------------------------------------------| 
|----------------------------------------------------| 
|--/6-----6-----6-----6-----\1-----1-----1------1----| 
| 
|   Q           e     Q.                 e      E 
|----------------------------------------------------| 
|----------------------------------------------------| 
|--12---------^10----^8----------------^10----^-7----| 
|----------------------------------------------------| 
|--10---------^-8----^6----------------^-8----^-5----| 
|----------------------------------------------------| 


   +E     E     E       Q        E       E         E 
|----------------------------------------------------------| 
|--------15----16-----------------------18-----------------| 
|-(15)-----------------17-------15-----(15)-------15-------| 
|----------------------------------------------------------| 
|----------------------------------------------------------| 
|----------------------------------------------------------| 
| 
|   |----------3----------| |-------------3--------------| 
|   E  S  E  S  E    S  E S E S  E   S   E      S  E     S 
|----------------------------------------------------------| 
|------3-----3-------3----3---3------3----------6--------6-| 
|----------------------------------------------------------| 
|----------------------------------------------------------| 
|---------------------------------------/5---------5-------| 
|---3-----3-----3-------3---3----3-------------------------| 
| 
|                                |-----------3-----------| 
|  +E     E.      E.        E   +E   S   S   S  S  S  S  S 
|----------------------------------------------------------| 
|----------------------------------------------------------| 
|--(7)----7-------7---------7---(7)S12--12--12-12-12-12-12-| 
|----------------------------------------------------------| 
|--(5)----5-------5---------5---(5)S10--10--10-10-10-10-10-| 
|----------------------------------------------------------| 


   +E     E     E     E    +E     E     E      E 
|----------------------------------------------------| 
|--------------18----------------------16----(16)----| 
|-(15)---------------15---(15)----------------15-----| 
|--------15---(15)-----------------------------------| 
|--------------------------------17---(17)-----------| 
|----------------------------------------------------| 
| 
|   |---------3---------|   |----------3----------| 
|   E  S  E S   E  S  E S   E  S  E S   E  S   E  S 
|-----------6-----------------------3----------------| 
|------8-----------8----8------4-----------4------4--| 
|----------------------------------------------------| 
|----------------------------------------------------| 
|---6-----6-----6-----6-----3-----3-----3------3-----| 
|----------------------------------------------------| 
| 
|   E     E     e     E     E     E     e      E 
|----------------------------------------------------| 
|----------------------------------------------------| 
|--12----12S===10----12----12----12----14-----15-----| 
|----------------------------------------------------| 
|--10----10S====8----10----10----10----12-----13-----| 
|----------------------------------------------------| 


   +E     E    E    Q         E       E         E 
|-------------------------------------------------------| 
|--------15---16---------------------18-----------------| 
|-(15)-------------17--------15-----(15)-------15-------| 
|-------------------------------------------------------| 
|-------------------------------------------------------| 
|-------------------------------------------------------| 
| 
|   |--------3--------|  |-------------3--------------| 
|   E  S  E S  E S  E S  E S  E   S   E      S  E     S 
|-------------------------------------------------------| 
|------3----3----3----3----3------3---------------------| 
|--------------------------------------------5--------5-| 
|-------------------------------------------------------| 
|-------------------------------------------------------| 
|---3-----3----3----3----3----3------/5---------5-------| 
| 
|                             |-----------3-----------| 
|   E     E    e    E    E    E   S   S   S  S  S  S  S 
|-------------------------------------------------------| 
|-------------------------------------------------------| 
|--15----15S==17---19---19---19\-12--12--12-12-12-12-12-| 
|-------------------------------------------------------| 
|--13----13S==15---17---17---17\-10--10--10-10-10-10-10-| 
|-------------------------------------------------------| 


   +E     E     E     E    +E     E     E      E 
|---------------------------------------------------| 
|--------------18----------------------16----(16)---| 
|-(15)---------------15---(15)----------------15----| 
|--------15---(15)----------------------------------| 
|--------------------------------17---(17)----------| 
|---------------------------------------------------| 
| 
|   |---------3---------|   |----------3----------| 
|   E  S  E S   E  S  E S   E  S  E S   E  S   E  S 
|---------------------------------------------------| 
|-----------6-----------------------1---------------| 
|------7-----------7----7------2-----------2------2-| 
|---------------------------------------------------| 
|---------------------------------------------------| 
|--/6-----6-----6-----6----\1-----1-----1------1----| 
| 
|   E     E     e     E     E     E     e      E 
|---------------------------------------------------| 
|---------------------------------------------------| 
|--12----12S===10-----8-----8-----8---/10-----\7----| 
|---------------------------------------------------| 
|--10----10S====8-----6-----6-----6----/8-----\5----| 
|---------------------------------------------------| 


   +E     E     E       Q        E       E         E 
|----------------------------------------------------------| 
|--------15----16-----------------------18-----------------| 
|-(15)-----------------17-------15-----(15)-------15-------| 
|----------------------------------------------------------| 
|----------------------------------------------------------| 
|----------------------------------------------------------| 
| 
|   |----------3----------| |-------------3--------------| 
|   E  S  E  S  E    S  E S E S  E   S   E      S  E     S 
|----------------------------------------------------------| 
|------3-----3-------3----3---3------3----------6--------6-| 
|----------------------------------------------------------| 
|----------------------------------------------------------| 
|---------------------------------------/5---------5-------| 
|---3-----3-----3-------3---3----3-------------------------| 
| 
|                                |-----------3-----------| 
|  +E     E.      E.        E   +E   S   S   S  S  S  S  S 
|----------------------------------------------------------| 
|----------------------------------------------------------| 
|--(7)----7-------7---------7---(7)S12--12--12-12-12-12-12-| 
|----------------------------------------------------------| 
|--(5)----5-------5---------5---(5)S10--10--10-10-10-10-10-| 
|----------------------------------------------------------| 


   +E     E     E     E         +E     E   E         E 
|----------------------------------------------------------| 
|--------------18-------------------------16-------(16)----| 
|-(15)---------------15--------(15)-----------------15-----| 
|--------15---(15)-----------------------------------------| 
|-------------------------------------17-(17)--------------| 
|----------------------------------------------------------| 
| 
|   |---------3---------|  |-------------3--------------| 
|   E  S  E S   E  S  E S  E S   E  S  E      S  E      S 
|-----------6-----------------------3----------------------| 
|------8-----------8----8----4----------------4---------4--| 
|----------------------------------------------------------| 
|----------------------------------------------------------| 
|---6-----6-----6-----6----3-----3-----3---------3---------| 
|----------------------------------------------------------| 
| 
|   E     E     e     E    E     E     e         E 
|----------------------------------------------------------| 
|----------------------------------------------------------| 
|--12----12S===10----12---12----12----14--------15---------| 
|----------------------------------------------------------| 
|--10----10S====8----10---10----10----12--------13---------| 
|----------------------------------------------------------| 


   +E     E    E    Q         E       E         E 
|-------------------------------------------------------| 
|--------15---16---------------------18-----------------| 
|-(15)-------------17--------15-----(15)-------15-------| 
|-------------------------------------------------------| 
|-------------------------------------------------------| 
|-------------------------------------------------------| 
| 
|   |--------3--------|  |-------------3--------------| 
|   E  S  E S  E S  E S  E S  E   S   E      S  E     S 
|-------------------------------------------------------| 
|------3----3----3----3----3------3---------------------| 
|--------------------------------------------5--------5-| 
|-------------------------------------------------------| 
|-------------------------------------------------------| 
|---3-----3----3----3----3----3------/5---------5-------| 
| 
|                             |-----------3-----------| 
|   E     E    e    E    E    E   S   S   S  S  S  S  S 
|-------------------------------------------------------| 
|-------------------------------------------------------| 
|--15----15S==17---19---19---19\-12--12--12-12-12-12-12-| 
|-------------------------------------------------------| 
|--13----13S==15---17---17---17\-10--10--10-10-10-10-10-| 
|-------------------------------------------------------| 


                                        |------3-------| 
   +E     E     E     E    +E     E     S  S  S  S  S  S 
|--------------------------------------------------------| 
|--------------18----------------------16-16-16-16-16-16-| 
|-(15)---------------15---(15)---------------------------| 
|--------15---(15)---------------------------------------| 
|--------------------------------17----------------------| 
|--------------------------------------------------------| 
| 
|   |---------3---------|   |------------3-------------| 
|   E  S  E S   E  S  E S   E  S  E S   E     S  E     S 
|--------------------------------------------------------| 
|-----------6-----------------------1--------------------| 
|------7-----------7----7------2--------------2--------2-| 
|--------------------------------------------------------| 
|--------------------------------------------------------| 
|--/6-----6-----6-----6----\1-----1-----1--------1-------| 
| 
|   E     E     e     E     E     E     e        E 
|--------------------------------------------------------| 
|--------------------------------------------------------| 
|--12----12S===10-----8-----8-----8---/10-------\7-------| 
|--------------------------------------------------------| 
|--10----10S====8-----6-----6-----6----/8-------\5-------| 
|--------------------------------------------------------| 


               |--------3--------|              |------3-------| 
   E     E     S  S     S  S  S  S  E    E      S  S  S  S  S  S 
|----------------------------------------------------------------| 
|-------------16-16----16-16-16-16-15----------18-18-18-18-18-18-| 
|-15----15-------------------------15---15-----------------------| 
|----------------------------------------------------------------| 
|----------------------------------------------------------------| 
|----------------------------------------------------------------| 
| 
|                                              Gtr V 
|  |--------------3--------------|  |---3----|  |------3-------| 
|  E  S  E  S  E        S  E     S  E S  E   S  S  S  S  S  S  S 
|----------------------------------------------------------------| 
|-----3-----3-----------3--------3----3------3-------------------| 
|----------------------------------------------------------------| 
|----------------------------------------------------------------| 
|----------------------------------------------12-12-12-12-12-12-| 
|--3-----3-----3-----------3--------3----3-----10-10-10-10-10-10-| 
| 
|                                        |----------3----------| 
| +E     E.         E.              E   +E   S  S  S  S  S  S  S 
|----------------------------------------------------------------| 
|----------------------------------------------------------------| 
|-(7)----7----------7---------------7---(7)S15-15-15-15-15-15-15-| 
|----------------------------------------------------------------| 
|-(5)----5----------5---------------5---(5)S13-13-13-13-13-13-13-| 
|----------------------------------------------------------------| 


             |------3-------|            |------3-------| 
    E    E   S  S  S  S  S  S   E    E   S  S  S  S  S  S 
|----------------------------------------------------------| 
|-----------18-18-18-18-18-18-----------16-16-16-16-16-16--| 
|--15--(15)--------------------15--(15)--------------------| 
|-(15)--15--------------------(15)--15---------------------| 
|----------------------------------------------------------| 
|----------------------------------------------------------| 
| 
|            |------3-------|            |------3-------| 
|   E    E   S  S  S  S  S  S   E    E   S  S  S  S  S  S 
|----------------------------------------------------------| 
|----------------------------------------------------------| 
|----------------------------------------------------------| 
|----------------------------------------------------------| 
|--13---13--13-13-13-13-13-13--10---10--10-10-10-10-10-10--| 
|--11---11--11-11-11-11-11-11---8----8---8--8--8--8--8--8--| 
| 
|            |------3-------|            |------3-------| 
|   E    E   S  S  S  S  S  S   E    E   S  S  S  S  S  S 
|----------------------------------------------------------| 
|----------------------------------------------------------| 
|--12---12--15-15-15-15-15-15--12---12--15-15-15-15-15-15--| 
|----------------------------------------------------------| 
|--10---10--13-13-13-13-13-13--10---10--13-13-13-13-13-13--| 
|----------------------------------------------------------| 


          |--------3---------|        |------3-------| 
   E  E   S  S      S  S  S  S  E  E  S  S  S  S  S  S 
|------------------------------------------------------| 
|--------16-16-----16-16-16-16-15----18-18-18-18-18-18-| 
|-15-15------------------------15-15-------------------| 
|------------------------------------------------------| 
|------------------------------------------------------| 
|------------------------------------------------------| 
| 
|                                     |------3-------| 
|  E  E   E            E        E  E  S  S  S  S  S  S 
|------------------------------------------------------| 
|------------------------------------------------------| 
|------------------------------------------------------| 
|------------------------------------------------------| 
|--5--5---5------------5--------5--5--7--7--7--7--7--7-| 
|--3--3---3------------3--------3--3--5--5--5--5--5--5-| 
| 
|                                     |------3-------| 
|  E  E.        E.              E  E  S  S  S  S  S  S 
|------------------------------------------------------| 
|------------------------------------------------------| 
|-19-19--------19--------------19-19S15-15-15-15-15-15-| 
|------------------------------------------------------| 
|-17-17--------17--------------17-17S13-13-13-13-13-13-| 
|------------------------------------------------------| 


             |------3-------|            |------3-------| 
    E    E   S  S  S  S  S  S   E    E   S  S  S  S  S  S 
|----------------------------------------------------------| 
|-----------18-18-18-18-18-18-----------16-16-16-16-16-16--| 
|--15--(15)--------------------15--(15)--------------------| 
|-(15)--15--------------------(15)--15---------------------| 
|----------------------------------------------------------| 
|----------------------------------------------------------| 
| 
|            |------3-------|            |------3-------| 
|   E    E   S  S  S  S  S  S   E    E   S  S  S  S  S  S 
|----------------------------------------------------------| 
|----------------------------------------------------------| 
|----------------------------------------------------------| 
|----------------------------------------------------------| 
|---8----8---8--8--8--8--8--8---3----3---3--3--3--3--3--3--| 
|---6----6---6--6--6--6--6--6---1----1---1--1--1--1--1--1--| 
| 
|   Q        Q                  Q        e        E 
|----------------------------------------------------------| 
|----------------------------------------------------------| 
|--12-------10------------------8-------10--------7--------| 
|----------------------------------------------------------| 
|--10--------8------------------6--------8--------5--------| 
|----------------------------------------------------------| 


           |--------3--------|            |------3-------| 
   E   E   S  S     S  S  S  S  E  E      S  S  S  S  S  S 
|----------------------------------------------------------| 
|---------16-16----16-16-16-16-15--------18-18-18-18-18-18-| 
|-15--15-----------------------15-15-----------------------| 
|----------------------------------------------------------| 
|----------------------------------------------------------| 
|----------------------------------------------------------| 
| 
|                                         |------3-------| 
|  E   E   E           E        E  E      S  S  S  S  S  S 
|----------------------------------------------------------| 
|----------------------------------------------------------| 
|----------------------------------------------------------| 
|----------------------------------------------------------| 
|--5---5---5-----------5--------5--5S====12-12-12-12-12-12-| 
|--3---3---3-----------3--------3--3S====10-10-10-10-10-10-| 
| 
|                                  |----------3----------| 
| +E   E.       E.              E +E   S  S  S  S  S  S  S 
|----------------------------------------------------------| 
|----------------------------------------------------------| 
|-(7)--7--------7---------------7-(7)S15-15-15-15-15-15-15-| 
|----------------------------------------------------------| 
|-(5)--5--------5---------------5-(5)S13-13-13-13-13-13-13-| 
|----------------------------------------------------------| 


             |------3-------|            |------3-------| 
    E    E   S  S  S  S  S  S   E    E   S  S  S  S  S  S 
|---------------------------------------------------------| 
|-----------18-18-18-18-18-18-----------16-16-16-16-16-16-| 
|--15--(15)--------------------15--(15)-------------------| 
|-(15)--15--------------------(15)--15--------------------| 
|---------------------------------------------------------| 
|---------------------------------------------------------| 
| 
|            |------3-------|            |------3-------| 
|   E    E   S  S  S  S  S  S   E    E   S  S  S  S  S  S 
|---------------------------------------------------------| 
|---------------------------------------------------------| 
|---------------------------------------------------------| 
|---------------------------------------------------------| 
|--13---13--13-13-13-13-13-13--10---10--10-10-10-10-10-10-| 
|--11---11--11-11-11-11-11-11---8----8---8--8--8--8--8--8-| 
| 
|            |------3-------|            |------3-------| 
|   E    E   S  S  S  S  S  S   E    E   S  S  S  S  S  S 
|---------------------------------------------------------| 
|---------------------------------------------------------| 
|--12---12--15-15-15-15-15-15--12---12--15-15-15-15-15-15-| 
|---------------------------------------------------------| 
|--10---10--13-13-13-13-13-13--10---10--13-13-13-13-13-13-| 
|---------------------------------------------------------| 


          |--------3---------|        |------3-------| 
   E  E   S  S      S  S  S  S  E  E  S  S  S  S  S  S 
|------------------------------------------------------| 
|--------16-16-----16-16-16-16-15----18-18-18-18-18-18-| 
|-15-15------------------------15-15-------------------| 
|------------------------------------------------------| 
|------------------------------------------------------| 
|------------------------------------------------------| 
| 
|                                     |------3-------| 
|  E  E   E            E        E  E  S  S  S  S  S  S 
|------------------------------------------------------| 
|------------------------------------------------------| 
|------------------------------------------------------| 
|------------------------------------------------------| 
|--5--5---5------------5--------5--5--7--7--7--7--7--7-| 
|--3--3---3------------3--------3--3--5--5--5--5--5--5-| 
| 
|                                     |------3-------| 
|  E  E.        E.              E  E  S  S  S  S  S  S 
|------------------------------------------------------| 
|------------------------------------------------------| 
|-19-19--------19--------------19-19S15-15-15-15-15-15-| 
|------------------------------------------------------| 
|-17-17--------17--------------17-17S13-13-13-13-13-13-| 
|------------------------------------------------------| 


             |------3-------|            |------3-------| 
    E    E   S  S  S  S  S  S   E    E   S  S  S  S  S  S 
|----------------------------------------------------------| 
|-----------18-18-18-18-18-18-----------16-16-16-16-16-16--| 
|--15--(15)--------------------15--(15)--------------------| 
|-(15)--15--------------------(15)--15---------------------| 
|----------------------------------------------------------| 
|----------------------------------------------------------| 
| 
|            |------3-------|            |------3-------| 
|   E    E   S  S  S  S  S  S   E    E   S  S  S  S  S  S 
|----------------------------------------------------------| 
|----------------------------------------------------------| 
|----------------------------------------------------------| 
|----------------------------------------------------------| 
|---8----8---8--8--8--8--8--8---3----3---3--3--3--3--3--3--| 
|---6----6---6--6--6--6--6--6---1----1---1--1--1--1--1--1--| 
| 
|   Q        Q                  Q        e        E 
|----------------------------------------------------------| 
|----------------------------------------------------------| 
|--12-------10------------------8-------10--------7--------| 
|----------------------------------------------------------| 
|--10--------8------------------6--------8--------5--------| 
|----------------------------------------------------------| 


 Outro Part II 
  Q=70 
    W                W 
|----------------|------------------------------| 
|-(15)-----------|------------------------------| 
|--15------------|------------------------------| 
|----------------|------------------------------| 
|----------------|------------------------------| 
|----------------|------------------------------| 
| 
|           Gtr II 
|   > 
|   H.        Q      H               H 
|----------------|------------------------------| 
|-------------6--|---8---------------4----------| 
|----------------|------------------------------| 
|----------------|------------------------------| 
|---5---------5--|---6---------------3----------| 
|---3------------|------------------------------| 
| 
|   H.        Q      E  +E    e   Q.      e   e 
|----------------|------------------------------| 
|----------------|------------------------------| 
|-^-7-------^12--|-^12-(12)S^10-^12-----^14-^15-| 
|----------------|------------------------------| 
|-^-5-------^10--|-^10-(10)S^-8-^10-----^12-^13-| 
|----------------|------------------------------| 


    W                        W 
|------------------------|--------------------------| 
|------------------------|--------------------------| 
|------------------------|--------------------------| 
|------------------------|--------------------------| 
|------------------------|--------------------------| 
|------------------------|--------------------------| 
| 
|   H.                Q      H           H 
|------------------------|--------------------------| 
|---3--------------------|--------------------------| 
|---------------------5--|---7-----------2----------| 
|------------------------|--------------------------| 
|------------------------|--------------------------| 
|---3-----------------5--|---6-----------1----------| 
| 
|  +Q     e   E  +H          Q.    +E    Q.    +E 
|------------------------|--------------------------| 
|------------------------|--------------------------| 
|-(15)--^17-^19-(19)-----|-^12----(12)S^10----(10)S=| 
|------------------------|--------------------------| 
|-(13)--^15-^17-(17)-----|-^10----(10)S^-8-----(8)S=| 
|------------------------|--------------------------| 


   W                W 
|---------------|------------------------------| 
|---------------|------------------------------| 
|---------------|------------------------------| 
|---------------|------------------------------| 
|---------------|------------------------------| 
|---------------|------------------------------| 
| 
|  H.        Q      H               H 
|---------------|------------------------------| 
|--3---------6--|---8---------------4----------| 
|---------------|------------------------------| 
|---------------|------------------------------| 
|------------5--|---6---------------3----------| 
|--3------------|------------------------------| 
| 
|  H.        Q      E  +E    e   Q.      e   E 
|---------------|------------------------------| 
|---------------|------------------------------| 
|-^7-------^12--|-^12-(12)S^10-^12-----^14-^15-| 
|---------------|------------------------------| 
|-^5-------^10--|-^10-(10)S^-8-^10-----^12-^13-| 
|---------------|------------------------------| 


  Gtr V 
                             < 
    W                        W 
|------------------------|-----------------------| 
|------------------------|-----------------------| 
|------------------------|--11b12================| 
|------------------------|-----------------------| 
|------------------------|-----------------------| 
|------------------------|-----------------------| 
| 
|   H.                Q      H              H 
|------------------------|-----------------------| 
|---3--------------------|------------------8----| 
|---------------------5--|---7-------------------| 
|------------------------|-----------------------| 
|------------------------|------------------6----| 
|---3-----------------5--|---6-------------------| 
| 
|  +Q     e   E  +H          Q.       +E    H 
|------------------------|-----------------------| 
|------------------------|-----------------------| 
|-(15)--^17-^19-(19)-----|-^12-------(12)S^15----| 
|------------------------|-----------------------| 
|-(13)--^15-^17-(17)-----|-^10-------(10)S^13----| 
|------------------------|-----------------------| 


         > 
   +E   +H..                     W 
|----------------------------|---------------| 
|----------------------------|---------------| 
|-(11)r(11)------------------|---------------| 
|----------------------------|---------------| 
|----------------------------|---------------| 
|----------------------------|---------------| 
| 
|   H.             Q             H      H 
|----------------------------|---------------| 
|------------------4---------|---3------4----| 
|---2------------------------|---------------| 
|----------------------------|---------------| 
|------------------3---------|---1------3----| 
|---1------------------------|---------------| 
| 
|   H.             E   a   E     H      H 
|----------------------------|---------------| 
|----------------------------|---------------| 
|-^10------------^12-(12)s15-|-^15----^17----| 
|----------------------------|---------------| 
|-^-8------------^10-(10)s13-|-^13----^15----| 
|----------------------------|---------------| 


                                       < 
    W                                  W 
|----------------------------------|--------------------------| 
|----------------------------------|--------------------------| 
|----------------------------------|--11b12===================| 
|----------------------------------|--------------------------| 
|----------------------------------|--------------------------| 
|----------------------------------|--------------------------| 
| 
|   H.                        Q        H         Q   Q 
|----------------------------------|------------10------------| 
|---6-------------------------8----|--11----------------------| 
|----------------------------------|-----------------7--------| 
|----------------------------------|--------------------------| 
|---5-------------------------6----|--10--------10------------| 
|----------------------------------|-----------------6--------| 
| 
|   Q     E    E    E    E   +E  E     H.            E  a   E 
|----------------------------------|--------------------------| 
|--------18------------------------|--------------------------| 
|-^19----19---19--(19)-(19)-(19)---|-^12------------^7-(7)s10-| 
|----------------------------------|--------------------------| 
|-^17---(17)-(17)-(17)-(17)-(17)---|-^10------------^5-(5)s=8-| 
|----------------------------------|--------------------------| 


         > 
   +E   +H..                     W 
|----------------------------|---------------| 
|----------------------------|---------------| 
|-(11)r(11)------------------|---------------| 
|----------------------------|---------------| 
|----------------------------|---------------| 
|----------------------------|---------------| 
| 
|   H.             Q             H      H 
|----------------------------|---------------| 
|------------------8---------|----------4----| 
|---2------------------------|---7-----------| 
|----------------------------|---------------| 
|------------------6---------|----------3----| 
|---1------------------------|---6-----------| 
| 
|   H.             E   a   E     H      H 
|----------------------------|---------------| 
|----------------------------|---------------| 
|-^10------------^12-(12)s15-|-^15----^17----| 
|----------------------------|---------------| 
|-^-8------------^10-(10)s13-|-^13----^15----| 
|----------------------------|---------------| 


                                          < 
   W                                      W 
|-------------------------------------|--------------------------| 
|-------------------------------------|--------------------------| 
|-------------------------------------|--11b12===================| 
|-------------------------------------|--------------------------| 
|-------------------------------------|--------------------------| 
|-------------------------------------|--------------------------| 
| 
|  H.                        Q            H         Q   Q 
|-------------------------------------|------------10------------| 
|--6-------------------------8--------|--11----------------------| 
|-------------------------------------|-----------------7--------| 
|-------------------------------------|--------------------------| 
|--5-------------------------6--------|--10--------10------------| 
|-------------------------------------|-----------------6--------| 
| 
|  Q     E    E   +E    E    E   +E       H.            E  a   E 
|-------------------------------------|--------------------------| 
|-------18-------------18-------------|--------------------------| 
|-19---------19--(19)-(19)--19--(19)\-|-^12------------^7-(7)s12-| 
|-------------------------------------|--------------------------| 
|-17---(17)-(17)-(17)-(17)-(17)-------|-^10------------^5-(5)s10-| 
|-------------------------------------|--------------------------| 


         > 
   +E   +H..              W 
|---------------------|------------------------------| 
|---------------------|------------------------------| 
|-(11)r(11)-----------|------------------------------| 
|---------------------|------------------------------| 
|---------------------|------------------------------| 
|---------------------|------------------------------| 
| 
|   H.             Q      H               H 
|---------------------|------------------------------| 
|---3--------------6--|---8---------------4----------| 
|---------------------|------------------------------| 
|---------------------|------------------------------| 
|------------------5--|---6---------------3----------| 
|---3-----------------|------------------------------| 
| 
|   H.             Q      E  +E    e   Q.      e   e 
|---------------------|------------------------------| 
|---------------------|------------------------------| 
|-^12------------^12--|-^12-(12)S^10-^12-----^14-^15-| 
|---------------------|------------------------------| 
|-^10------------^10--|-^10-(10)S^-8-^10-----^12-^13-| 
|---------------------|------------------------------| 


                             < 
    W                        W 
|------------------------|-----------------------------| 
|------------------------|-----------------------------| 
|------------------------|--11b12======================| 
|------------------------|-----------------------------| 
|------------------------|-----------------------------| 
|------------------------|-----------------------------| 
| 
|   H.                Q      H              H 
|------------------------|-----------------------------| 
|---3--------------------|-----------------------------| 
|---------------------5--|---7--------------2----------| 
|------------------------|-----------------------------| 
|------------------------|-----------------------------| 
|---3-----------------5--|---6--------------1----------| 
| 
|  +Q     e   E  +H          Q.       +E    Q.    +E 
|------------------------|-----------------------------| 
|------------------------|-----------------------------| 
|-(15)--^17-^19-(19)-----|-^12-------(12)S^10----(10)S=| 
|------------------------|-----------------------------| 
|-(13)--^15-^17-(17)-----|-^10-------(10)S^-8-----(8)S=| 
|------------------------|-----------------------------| 


         > 
   +E   +H..              W 
|---------------------|------------------------------| 
|---------------------|------------------------------| 
|-(11)r(11)-----------|------------------------------| 
|---------------------|------------------------------| 
|---------------------|------------------------------| 
|---------------------|------------------------------| 
| 
|   H.             Q      H               H 
|---------------------|------------------------------| 
|---3--------------6--|---8---------------4----------| 
|---------------------|------------------------------| 
|---------------------|------------------------------| 
|------------------5--|---6---------------3----------| 
|---3-----------------|------------------------------| 
| 
|   H.             Q      E  +E    e   Q.      e   E 
|---------------------|------------------------------| 
|---------------------|------------------------------| 
|-^-7------------^12--|-^12-(12)S^10-^12-----^14-^15-| 
|---------------------|------------------------------| 
|-^-5------------^10--|-^10-(10)S^-8-^10-----^12-^13-| 
|---------------------|------------------------------| 


                             < 
    W                        W 
|------------------------|-----------------------| 
|------------------------|-----------------------| 
|------------------------|--11b12================| 
|------------------------|-----------------------| 
|------------------------|-----------------------| 
|------------------------|-----------------------| 
| 
|   H.                Q      H              H 
|------------------------|-----------------------| 
|---3--------------------|------------------8----| 
|---------------------5--|---7-------------------| 
|------------------------|-----------------------| 
|------------------------|------------------6----| 
|---3-----------------5--|---6-------------------| 
| 
|  +Q     e   E  +H          Q.       +E    H 
|------------------------|-----------------------| 
|------------------------|-----------------------| 
|-(15)--^17-^19-(19)-----|-^12-------(12)S^15----| 
|------------------------|-----------------------| 
|-(13)--^15-^17-(17)-----|-^10-------(10)S^13----| 
|------------------------|-----------------------| 


         > 
   +E   +H..                     W 
|----------------------------|---------------| 
|----------------------------|---------------| 
|-(11)r(11)------------------|---------------| 
|----------------------------|---------------| 
|----------------------------|---------------| 
|----------------------------|---------------| 
| 
|   H.             Q             H      H 
|----------------------------|---------------| 
|------------------4---------|---3------4----| 
|---2------------------------|---------------| 
|----------------------------|---------------| 
|------------------3---------|---1------3----| 
|---1------------------------|---------------| 
| 
|   H.             E   a   E     H      H 
|----------------------------|---------------| 
|----------------------------|---------------| 
|-^10------------^12-(12)s15-|-^15----^17----| 
|----------------------------|---------------| 
|-^-8------------^10-(10)s13-|-^13----^15----| 
|----------------------------|---------------| 


                                           < 
    W                                      W 
|--------------------------------------|--------------------------| 
|--------------------------------------|--------------------------| 
|--------------------------------------|--11b12===================| 
|--------------------------------------|--------------------------| 
|--------------------------------------|--------------------------| 
|--------------------------------------|--------------------------| 
| 
|   H.                        Q            H         Q   Q 
|--------------------------------------|------------10------------| 
|---6-------------------------8--------|--11----------------------| 
|--------------------------------------|-----------------7--------| 
|--------------------------------------|--------------------------| 
|---5-------------------------6--------|--10--------10------------| 
|--------------------------------------|-----------------6--------| 
| 
|   Q     E    E   +E    E    E   +E       H.            E  a   E 
|--------------------------------------|--------------------------| 
|--------18-------------18-------------|--------------------------| 
|-^19---------19--(19)-(19)--19--(19)\-|-^12------------^7-(7)s10-| 
|--------------------------------------|--------------------------| 
|-^17---(17)-(17)-(17)-(17)-(17)-------|-^10------------^5-(5)s=8-| 
|--------------------------------------|--------------------------| 


         > 
   +E   +H..                     W 
|----------------------------|---------------| 
|----------------------------|---------------| 
|-(11)r(11)------------------|---------------| 
|----------------------------|---------------| 
|----------------------------|---------------| 
|----------------------------|---------------| 
| 
|   H.             Q             H      H 
|----------------------------|---------------| 
|------------------4---------|---3------4----| 
|---2------------------------|---------------| 
|----------------------------|---------------| 
|------------------3---------|---1------3----| 
|---1------------------------|---------------| 
| 
|   H.             E   a   E     H      H 
|----------------------------|---------------| 
|----------------------------|---------------| 
|-^10------------^12-(12)s15-|-^15----^17----| 
|----------------------------|---------------| 
|-^-8------------^10-(10)s13-|-^13----^15----| 
|----------------------------|---------------| 


                                           < 
    W                                      W 
|--------------------------------------|--------------------------| 
|--------------------------------------|--------------------------| 
|--------------------------------------|--11b12===================| 
|--------------------------------------|--------------------------| 
|--------------------------------------|--------------------------| 
|--------------------------------------|--------------------------| 
| 
|   H.                        Q            H         Q   Q 
|--------------------------------------|------------10------------| 
|---6-------------------------8--------|--11----------------------| 
|--------------------------------------|-----------------7--------| 
|--------------------------------------|--------------------------| 
|---5-------------------------6--------|--10--------10------------| 
|--------------------------------------|-----------------6--------| 
| 
|   Q     E    E   +E    E    E   +E       H.            E  a   E 
|--------------------------------------|--------------------------| 
|--------18-------------18-------------|--------------------------| 
|-^19---------19--(19)-(19)--19--(19)\-|-^12------------^7-(7)s12-| 
|--------------------------------------|--------------------------| 
|-^17---(17)-(17)-(17)-(17)-(17)-------|-^10------------^5-(5)s10-| 
|--------------------------------------|--------------------------| 


         > 
   +E   +H..              W 
|---------------------|------------------------------| 
|---------------------|------------------------------| 
|-(11)r(11)-----------|------------------------------| 
|---------------------|------------------------------| 
|---------------------|------------------------------| 
|---------------------|------------------------------| 
| 
|   H.             Q      H               H 
|---------------------|------------------------------| 
|---3--------------6--|---8---------------4----------| 
|---------------------|------------------------------| 
|---------------------|------------------------------| 
|------------------5--|---6---------------3----------| 
|---3-----------------|------------------------------| 
| 
|   H.             Q      E  +E    e   Q.      e   e 
|---------------------|------------------------------| 
|---------------------|------------------------------| 
|-^12------------^12--|-^12-(12)S^10-^12-----^14-^15-| 
|---------------------|------------------------------| 
|-^10------------^10--|-^10-(10)S^-8-^10-----^12-^13-| 
|---------------------|------------------------------| 


                             < 
    W                        W 
|------------------------|-----------------------------| 
|------------------------|-----------------------------| 
|------------------------|--11b12======================| 
|------------------------|-----------------------------| 
|------------------------|-----------------------------| 
|------------------------|-----------------------------| 
| 
|   H.                Q      H              H 
|------------------------|-----------------------------| 
|---3--------------------|-----------------------------| 
|---------------------5--|---7--------------2----------| 
|------------------------|-----------------------------| 
|------------------------|-----------------------------| 
|---3-----------------5--|---6--------------1----------| 
| 
|  +Q     e   E  +H          Q.       +E    Q.    +E 
|------------------------|-----------------------------| 
|------------------------|-----------------------------| 
|-(15)--^17-^19-(19)-----|-^12-------(12)S^10----(10)S=| 
|------------------------|-----------------------------| 
|-(13)--^15-^17-(17)-----|-^10-------(10)S^-8-----(8)S=| 
|------------------------|-----------------------------| 


         > 
   +E   +H..              W 
|---------------------|------------------------------| 
|---------------------|------------------------------| 
|-(11)r(11)-----------|------------------------------| 
|---------------------|------------------------------| 
|---------------------|------------------------------| 
|---------------------|------------------------------| 
| 
|   H.             Q      H               H 
|---------------------|------------------------------| 
|---3--------------6--|---8---------------4----------| 
|---------------------|------------------------------| 
|---------------------|------------------------------| 
|------------------5--|---6---------------3----------| 
|---3-----------------|------------------------------| 
| 
|   H.             Q      E  +E    e   Q.      e   E 
|---------------------|------------------------------| 
|---------------------|------------------------------| 
|-^-7------------^12--|-^12-(12)S^10-^12-----^14-^15-| 
|---------------------|------------------------------| 
|-^-5------------^10--|-^10-(10)S^-8-^10-----^12-^13-| 
|---------------------|------------------------------| 


                             < 
    W                        W 
|------------------------|-----------------------| 
|------------------------|-----------------------| 
|------------------------|--11b12================| 
|------------------------|-----------------------| 
|------------------------|-----------------------| 
|------------------------|-----------------------| 
| 
|   H.                Q      H              H 
|------------------------|-----------------------| 
|---3--------------------|------------------8----| 
|---------------------5--|---7-------------------| 
|------------------------|-----------------------| 
|------------------------|------------------6----| 
|---3-----------------5--|---6-------------------| 
| 
|  +Q     e   E  +H          Q.       +E    H 
|------------------------|-----------------------| 
|------------------------|-----------------------| 
|-(15)--^17-^19-(19)-----|-^12-------(12)S^15----| 
|------------------------|-----------------------| 
|-(13)--^15-^17-(17)-----|-^10-------(10)S^13----| 
|------------------------|-----------------------| 


         > 
   +E   +H..                     W 
|----------------------------|---------------| 
|----------------------------|---------------| 
|-(11)r(11)------------------|---------------| 
|----------------------------|---------------| 
|----------------------------|---------------| 
|----------------------------|---------------| 
| 
|   H.             Q             H      H 
|----------------------------|---------------| 
|------------------8---------|----------4----| 
|---2------------------------|---7-----------| 
|----------------------------|---------------| 
|------------------6---------|----------3----| 
|---1------------------------|---6-----------| 
| 
|   H.             E   a   E     H      H 
|----------------------------|---------------| 
|----------------------------|---------------| 
|-^10------------^12-(12)s15-|-^15----^17----| 
|----------------------------|---------------| 
|-^-8------------^10-(10)s13-|-^13----^15----| 
|----------------------------|---------------| 


                                           < 
    W                                      W 
|--------------------------------------|--------------------------| 
|--------------------------------------|--------------------------| 
|--------------------------------------|--11b12===================| 
|--------------------------------------|--------------------------| 
|--------------------------------------|--------------------------| 
|--------------------------------------|--------------------------| 
| 
|   H.                        Q            H         Q   Q 
|--------------------------------------|------------10------------| 
|---6-------------------------8--------|--11----------------------| 
|--------------------------------------|-----------------7--------| 
|--------------------------------------|--------------------------| 
|---5-------------------------6--------|--10--------10------------| 
|--------------------------------------|-----------------6--------| 
| 
|   Q     E    E   +E    E    E   +E       H.            E  a   E 
|--------------------------------------|--------------------------| 
|--------18-------------18-------------|--------------------------| 
|-^19---------19--(19)-(19)--19--(19)\-|-^12------------^7-(7)s10-| 
|--------------------------------------|--------------------------| 
|-^17---(17)-(17)-(17)-(17)-(17)-------|-^10------------^5-(5)s=8-| 
|--------------------------------------|--------------------------| 


         > 
   +E   +H..                     W 
|----------------------------|---------------| 
|----------------------------|---------------| 
|-(11)r(11)------------------|---------------| 
|----------------------------|---------------| 
|----------------------------|---------------| 
|----------------------------|---------------| 
| 
|   H.             Q             H      H 
|----------------------------|---------------| 
|------------------8---------|----------4----| 
|---2------------------------|---7-----------| 
|----------------------------|---------------| 
|------------------6---------|----------3----| 
|---1------------------------|---6-----------| 
| 
|   H.             E   a   E     H      H 
|----------------------------|---------------| 
|----------------------------|---------------| 
|-^10------------^12-(12)s15-|-^15----^17----| 
|----------------------------|---------------| 
|-^-8------------^10-(10)s13-|-^13----^15----| 
|----------------------------|---------------| 


                                           < 
    W                                      W 
|--------------------------------------|--------------------------| 
|--------------------------------------|--------------------------| 
|--------------------------------------|--11b12===================| 
|--------------------------------------|--------------------------| 
|--------------------------------------|--------------------------| 
|--------------------------------------|--------------------------| 
| 
|   H.                        Q            H         Q   Q 
|--------------------------------------|------------10------------| 
|---6-------------------------8--------|--11----------------------| 
|--------------------------------------|-----------------7--------| 
|--------------------------------------|--------------------------| 
|---5-------------------------6--------|--10--------10------------| 
|--------------------------------------|-----------------6--------| 
| 
|   Q     E    E   +E    E    E   +E       H.            E  a   E 
|--------------------------------------|--------------------------| 
|--------18-------------18-------------|--------------------------| 
|-^19---------19--(19)-(19)--19--(19)\-|-^12------------^7-(7)s12-| 
|--------------------------------------|--------------------------| 
|-^17---(17)-(17)-(17)-(17)-(17)-------|-^10------------^5-(5)s10-| 
|--------------------------------------|--------------------------| 


         > 
   +E   +H..         W 
|------------------|------| 
|------------------|------| 
|-(11)r(11)--------|------| 
|------------------|------| 
|------------------|------| 
|------------------|------| 
| 
|   W                W 
|------------------|------| 
|---3--------------|------| 
|------------------|------| 
|------------------|------| 
|------------------|------| 
|---3--------------|------| 
| 
|   W                W 
|------------------|------| 
|------------------|------| 
|--12--------------|------| 
|------------------|------| 
|--10--------------|------| 
|------------------|------| 


  Gtr V 
   <                                   > 
   W               +W            +E   +H..          +W 
|---------------|-------------|------------------|---------*| 
|---------------|-------------|------------------|---------*| 
|-11b12=========|=(11)--------|-(11)r(11)--------|-(11)----*| 
|---------------|-------------|------------------|---------*| 
|---------------|-------------|------------------|---------*| 
|---------------|-------------|------------------|---------*| 


Duration Legend 
--------------- 
W - whole; H - half; Q - quarter; E - 8th; S - 16th; T - 32nd; X - 64th; a - acciaccatura 
+ - note tied to previous; . - note dotted; .. - note double dotted 
Uncapitalized letters represent notes that are staccato (1/2 duration) 
Irregular groupings are notated above the duration line 
Duration letters will always appear directly above the note/fret number it represents the 
duration for.  Duration letters with no fret number below them represent rests.  Multi- 
bar rests are notated in the form Wxn, where n is the number of bars to rest for.  Low 
melody durations appear below the staff 

Tablature Legend 
---------------- 
 h   - hammer-on 
 p   - pull-off 
 b   - bend 
 pb  - pre-bend 
 r   - bend release (if no number after the r, then release immediately) 
 /\  - slide into or out of (from/to 'nowhere') 
 s   - legato slide 
 S   - shift slide 
  - natural harmonic 
n  - artificial harmonic 
n(n) - tapped harmonic 
 ~   - vibrato 
 tr  - trill 
 T   - tap 
 TP  - trem. picking 
 PM  - palm muting 
\n/  - tremolo bar dip; n = amount to dip 
 \n  - tremolo bar down 
 n/  - tremolo bar up 
/n\  - tremolo bar inverted dip 
 =   - hold bend; also acts as connecting device for hammers/pulls 
 <>  - volume swell (louder/softer) 
 x   - on rhythm slash represents muted slash 
 o   - on rhythm slash represents single note slash 

Misc Legend 
----------- 
 |  - bar 
||  - double bar 
||o - repeat start 
o|| - repeat end 
*|  - double bar (ending) 
 :  - bar (freetime) 
 $  - Segno 
 &  - Coda 
 
share this page

See Also: