E-Chords
Explosions In The Sky

Last Known Surroundings(Tabs)

Explosions In The Sky

roll up this ad to continue

Key: A
part 1 

0:52-3:12  intro 

e|-------------------------| 
B|-------------------------| 
G|-------------------------|  repeat through duration above 
D|-------------------------| 
A|--11---14---13---11------| 
E|--11---14---14---11------| 

3:12-end  riff 3 

e|-----------------------------------------------------------------| 
B|-----------------------------------------------------------------| 
G|-----------------------------------------------------------------| 
D|-----------------------------------------------------------------|  repeat until end 
A|---------5-5-5-|--------8-8-8|-------5-5-5-|--------5-5-5--------| 
E|--5-5-5--------|-6-6-6-------|-5-5-5-------|-6-6-6---------------| 
          3X             3x              3x              3x          






part 2 

0:52-3:29  intro 

e|-------------| 
B|-------------| 
G|-------------|  long even pitch slide 
D|--8///////15-|   repeat through duration above 
A|-------------| 
E|-------------| 

3:29 riff 4 

e|----------------------------------------------------------------| 
B|----------------------------------------------------------------| 
G|----------------------------------------------------------------| play once 
D|----------------------------------------------------------------| 
A|------------------------------------------10--------------------| 
E|--5--6---6--8---8--10---10--11--13---11-13--13\10-10------------| 




part 3 

1:32-1:58 riff 1 

e|---------------------------------------| 
B|---------------------------------------| 
G|---------------------------------------|  x3 w/ occasional variation 
D|---------------------------------------| 
A|--13--17-20-18-17-17-15-12-13----------| 
E|---------------------------------------| 

1:58-2:07 riff 2 

e|--------------------------| 
B|--18-16-15-13-10-11-------| 
G|--------------------------|  play once 
D|--------------------------| 
A|--------------------------| 
E|--------------------------| 

2:07-2:33 riff x3 one w/ occasional variation 

2:33-3:51 riff 2 x8 w/ occasional variation 

3:51-5:32 riff 5 

e|----------------------|----------------------------| 
B|----------------------|----------------------------| 
G|--15--14-15----14-|--19--17-19--15-17--------------| 
D|--------------15-----|---------------------|   x12-| 
A|---------------------|-----------------------------| 
E|----------------------|----------------------------| 
           x4                       x4             

5:32-5:49 riff 2 x2 

alternate riff 5 x12 and riff 2 x2 until end 
share this page

See Also: