E-Chords
Explosions In The Sky

Disintegration Anxiety(Tabs)

Explosions In The Sky

roll up this ad to continue

Guitar 1 
 
x3 
e|---------------------------------------------------------------------------| 
B|---------------------------------------------------------------------------| 
G|---------------------------------------------------------------------------| 
D|---------------------------------------------------------------------------| 
A|--14-14-14-14-14-14-14-11-14-11----7-7-7-7-7-7-7-6-7-6---------------------| 
E|---------------------------------------------------------------------------| 

e|---------------------------------------------------------------------------| 
B|---------------------------------------------------------------------------| 
G|---------------------------------------------------------------------------| 
D|---------------------------------------------------------------------------| 
A|--14-14-14-14-14-14-14-11-14-11----7-7-7-7-7-7-7/-11-11--------------------| 
E|---------------------------------------------------------------------------| 

4th time 
e|---------------------------------------------------------------------------| 
B|---------------------------------------------------------------------------| 
G|---------------------------------------------------------------------------| 
D|---------------------------------------------------------------------------| 
A|--7-7-7-7-7-7-7-11-11--------------7-7-7-7-7-7-7-11-11---------------------| 
E|---------------------------------------------------------------------------| 

e|---------------------------------------------------------------------------| 
B|---------------------------------------------------------------------------| 
G|---------------------------------------------------------------------------| 
D|---------------------------------------------------------------------------| 
A|--7-7-7-7-7-7-7----11--------------7-7-7-7-7-7-7/----2---------------------| 
E|---------------------------------------------------------------------------| 

Guitar 2 - Played with Delay & Whammy Pedal Octave Up 
Trill 
e|---------------------------------------------------------------------------| 
B|---------------------------------------------------------------------------| 
G|--11tr~------------------------------------------------------2tr--1--------| 
D|---------------------------------------------------------------------------| 
A|---------------------------------------------------------------------------| 
E|---------------------------------------------------------------------------| 

Played into the Chorus 
e|---------------------------------------------------------------------------| 
B|---------------------------------------------12tr------------12tr~---------| 
G|--11tr-------------------9tr--------------------------9tr------------------| 
D|---------------------------------------------------------------------------| 
A|---------------------------------------------------------------------------| 
E|---------------------------------------------------------------------------| 

Verse 

Guitar 1 
x3 
e|---------------------------------------------------------------------------| 
B|---------------------------------------------------------------------------| 
G|---------------------------------------------------------------------------| 
D|---------------------------------------------------------------------------| 
A|--11--11/--------6--6--------------7--7/----------2--2/--------------------| 
E|---------------------------------------------------------------------------| 

e|---------------------------------------------------------------------------| 
B|---------------------------------------------------------------------------| 
G|---------------------------------------------------------------------------| 
D|---------------------------------------------------------------------------| 
A|--11--11/--------6--6--------------7--7/----------9--9---------------------| 
E|---------------------------------------------------------------------------| 

Last time 
e|---------------------------------------------------------------------------| 
B|---------------------------------------------------------------------------| 
G|---------------------------------------------------------------------------| 
D|---------------------------------------------------------------------------| 
A|--11--11/--------6--6--------------7--7/----------2--2/--------------------| 
E|---------------------------------------------------------------------------| 

e|---------------------------------------------------------------------------| 
B|---------------------------------------------------------------------------| 
G|---------------------------------------------------------------------------| 
D|---------------------------------------------------------------------------| 
A|--11--11/--------6--6-------------14-14-14-14-14---------------------------| 
E|---------------------------------------------------------------------------| 

Guitar 2 
Crescendo the strumming until the verse ends 
e|---------------------------------------------------------------------------| 
B|--------------12-12-12-12-12-12-12-12--------------------------------------| 
G|--13-13-13-13-13-13-13-13-13-13-13-13--------------------------------------| 
D|--13-13-13-13-13-13-13-13-13-13-13-13--------------------------------------| 
A|--11-11-11-11-11-11-11-11-11-11-11-11--------------------------------------| 
E|---------------------------------------------------------------------------| 


Second Chorus 

Guitar 1 
x3 
e|---------------------------------------------------------------------------| 
B|---------------------------------------------------------------------------| 
G|---------------------------------------------------------------------------| 
D|---------------------------------------------------------------------------| 
A|--14-14-14-14-14-14-14-11-14-11----7-7-7-7-7-7-7-6-7-6---------------------| 
E|---------------------------------------------------------------------------| 

e|---------------------------------------------------------------------------| 
B|---------------------------------------------------------------------------| 
G|---------------------------------------------------------------------------| 
D|---------------------------------------------------------------------------| 
A|--14-14-14-14-14-14-14-11-14-11----7-7-7-7-7-7-7/-11-11--------------------| 
E|---------------------------------------------------------------------------| 

4th time 
e|---------------------------------------------------------------------------| 
B|---------------------------------------------------------------------------| 
G|---------------------------------------------------------------------------| 
D|---------------------------------------------------------------------------| 
A|--7-7-7-7-7-7-7-11-11--------------7-7-7-7-7-7-7-11-11---------------------| 
E|---------------------------------------------------------------------------| 


e|---------------------------------------------------------------------------| 
B|---------------------------------------------------------------------------| 
G|---------------------------------------------------------------------------| 
D|---------------------------------------------------------------------------| 
A|--7-7-7-7-7-7-7----11--------------7-7-7-7-7-7-7/----2---------------------| 
E|---------------------------------------------------------------------------| 

Guitar 2 
Played throughout second Chorus, crescendo the strumming again for the last chord 
e|---------------------------------------------------------------------------| 
B|--12tr---------------------------------------------------------------------| 
G|-----------------------------------13tr-----------------------------13~----| 
D|--------------------------------------------------------------------13~----| 
A|--------------------------------------------------------------------11~----| 
E|---------------------------------------------------------------------------| 


Bridge 

Guitar 1 
w/Volume Pedal fade in notes 
e|---------------------------------------------------------------------------| 
B|---------------------------------------------------------------------------| 
G|--13----11----9~-----------4-------9----8--4--8~----13---------------------| 
D|---------------------------------------------------------------------------| 
A|---------------------------------------------------------------------------| 
E|---------------------------------------------------------------------------| 

e|---------------------------------------------------------------------------| 
B|---------------------------------------------------------------------------| 
G|--11----9----8~------------4~----------------------------------------------| 
D|---------------------------------------------------------------------------| 
A|---------------------------------------------------------------------------| 
E|---------------------------------------------------------------------------| 

Guitar 2 
Strum at 4th measures, crescendo into chord. By the end of the bridge, strum chord continuously 
into start of third Chorus 
e|---------------------------------------------------------------------------| 
B|---------------------------------------------------------------------------| 
G|----13~--------------------------------------------------------------------| 
D|----13~--------------------------------------------------------------------| 
A|----11~--------------------------------------------------------------------| 
E|---------------------------------------------------------------------------| 


Third Chorus 

Guitar 1 
x3 
e|---------------------------------------------------------------------------| 
B|---------------------------------------------------------------------------| 
G|---------------------------------------------------------------------------| 
D|---------------------------------------------------------------------------| 
A|--14-14-14-14-14-14-14-11-14-11----7-7-7-7-7-7-7-6-7-6---------------------| 
E|---------------------------------------------------------------------------| 

e|---------------------------------------------------------------------------| 
B|---------------------------------------------------------------------------| 
G|---------------------------------------------------------------------------| 
D|---------------------------------------------------------------------------| 
A|--14-14-14-14-14-14-14-11-14-11----7-7-7-7-7-7-7/-11-11--------------------| 
E|---------------------------------------------------------------------------| 

4th time 
e|---------------------------------------------------------------------------| 
B|---------------------------------------------------------------------------| 
G|---------------------------------------------------------------------------| 
D|---------------------------------------------------------------------------| 
A|--7-7-7-7-7-7-7-11-11--------------7-7-7-7-7-7-7-11-11---------------------| 
E|---------------------------------------------------------------------------| 

e|---------------------------------------------------------------------------| 
B|---------------------------------------------------------------------------| 
G|---------------------------------------------------------------------------| 
D|---------------------------------------------------------------------------| 
A|--7-7-7-7-7-7-7----11--------------7-7-7-7-7-7-7/----2---------------------| 
E|---------------------------------------------------------------------------| 

Verse 

Guitar 1 
x3 
e|---------------------------------------------------------------------------| 
B|---------------------------------------------------------------------------| 
G|---------------------------------------------------------------------------| 
D|---------------------------------------------------------------------------| 
A|--11--11/--------6--6--------------7--7/----------2--2/--------------------| 
E|---------------------------------------------------------------------------| 

e|---------------------------------------------------------------------------| 
B|---------------------------------------------------------------------------| 
G|---------------------------------------------------------------------------| 
D|---------------------------------------------------------------------------| 
A|--11--11/--------6--6--------------7--7/----------9--9---------------------| 
E|---------------------------------------------------------------------------| 

Last time 
e|---------------------------------------------------------------------------| 
B|---------------------------------------------------------------------------| 
G|---------------------------------------------------------------------------| 
D|---------------------------------------------------------------------------| 
A|--11--11/--------6--6--------------7--7/----------2--2/--------------------| 
E|---------------------------------------------------------------------------| 

e|---------------------------------------------------------------------------| 
B|---------------------------------------------------------------------------| 
G|---------------------------------------------------------------------------| 
D|---------------------------------------------------------------------------| 
A|--11--11/--------6--6-------------14-14-14-14-14---------------------------| 
E|---------------------------------------------------------------------------| 

Guitar 2 
Whammy pedal off 
x4 
e|--12---12-12-12------12---12-12-12-----------------------------------------| 
B|-----------------------------------------12---12-12-12---------------------| 
G|-----------------13-----------------13------------------13----14----13-----| 
D|---------------------------------------------------------------------------| 
A|---------------------------------------------------------------------------| 
E|---------------------------------------------------------------------------| 
share this page

See Also: