E-Chords
Exist Trace

True(Tabs)

Exist Trace

roll up this ad to continue

Key: C
   
Both Guitars Play  
e|-----------------------| 
B|-----------------------| 
G|-----------------------| 
D|--5-x-4~---4--4--4--4--| 
A|--3-x-2~---2--2--2--2--| 
D|-----------------------| 
	     .  .  .  . 

  . - means palm muting  

Omi's Part 
e|------------------------| 
B|------------------------| 
G|------------------------| 
D|--4--4h5-4h5-4--4--4--5-| 
A|--2--2h3-2h3-2--2--2--3-| 
D|------------------------| 

And Miko's Part 

e|----------------------------------------------------| 
B|--12p0-11p0-10p0-7p0-8p0---12p0-11p0-10p0-7p0-8p0---| 
G|----------------------------------------------------| 
D|----------------------------------------------------| 
A|----------------------------------------------------| 
D|----------------------------------------------------| 

e|---------------------------------------------------| 
B|12p0-11p0-10p0-7p0-8p0---12p0-11p0-15p0-14p0-13p0--| 
G|---------------------------------------------------| 
D|---------------------------------------------------| 
A|---------------------------------------------------| 
D|---------------------------------------------------| 


e|-----------------------------------------------------------------------------------------------| 
B|--12p0-11p0-10p0-7p0-8p0---12p0-11p0-10p0-7p0-8p0---12p0-11p0-10p0-7p0-8p0---12p0-11p0-10p0-7p0| 
G|-----------------------------------------------------------------------------------------------| 
D|-----------------------------------------------------------------------------------------------| 
A|-----------------------------------------------------------------------------------------------| 
D|-----------------------------------------------------------------------------------------------| 

Then Miko plays  OMI DOESN'T PLAY HERE  

e|----------------------------------------| 
B|----------------------------------------| 
G|----------------------------------------| 
D|--4--4-4-4-4-4-4-4-4-4-4-4-4-4-Two-times| 
A|--2--2-2-2-2-2-2-2-2-2-2-2-2-2----------| 
D|----------------------------------------| 

E|-----------------------------------------------------| 
B|-----------------------------------------------------| 
G|-----------------------------------------------------| 
D|-----------------------------------------------------| 
A|-0--0-0-0-0--0--0-0-0-0---2--2-2-2-2--2--2-2-2-2-----| 
D|-0--0-0-0-0--0--0-0-0-0---2--2-2-2-2--2--2-2-2-2-----| 


      . . . . . . . . . . . . . 	      . . . .     . . . .      . . . .  .  . . . . 

And again 

Omi's Part 
e|------------------------| 
B|------------------------| 
G|------------------------| 
D|--4--4h5-4h5-4--4--4--5-| 
A|--2--2h3-2h3-2--2--2--3-| 
D|------------------------| 

And Miko's Part 


e|-----------------------------------------------------------------------------------------------| 
B|--12p0-11p0-10p0-7p0-8p0---12p0-11p0-10p0-7p0-8p0---12p0-11p0-10p0-7p0-8p0---12p0-11p0-10p0-7p0| 
G|-----------------------------------------------------------------------------------------------| 
D|-----------------------------------------------------------------------------------------------| 
A|-----------------------------------------------------------------------------------------------| 
D|-----------------------------------------------------------------------------------------------| 



e|---------------------------------------------------------------------------------------------| 
B|---------------------------------------------------------------------------------------------| 
G|---------------------------------------------------------------------------------------------| 
D|--4--4-4-4-4-4-4-4-4-4-4-4-4-4-Two-times-----------------------------------------------------| 
A|--2--2-2-2-2-2-2-2-2-2-2-2-2-2-----------0--0-0-0-0--0--0-0-0-0---2--2-2-2-2--2--2-2-2-2-----| 
D|-----------------------------------------0--0-0-0-0--0--0-0-0-0---2--2-2-2-2--2--2-2-2-2-----| 

					      . . . .     . . . .      . . . .     . . .  
While Miko's playing this /\ Omi plays: 


e|-----------------------------------------------------------------------| 
B|-----------------------------------------------------------------------| 
G|-----9-9/11--11-9-7-6--------9-9/11--11b-11b-11b-11b-------------------| 
D|--9------------------------9-------------------------------------------| 
A|-----------------------------------------------------------------------| 
D|-----------------------------------------------------------------------| 


Then Miko plays 

e|------------------------|------------------------| 
B|------------------------|------------------------| 
G|------------------------|------------------------| 
D|--4x4~--~4x4--5-4-3-2---|-4x4~--~4x4--5-4-3-2----| 
A|--2x2----2x2--3-2-1-0---|-2x2----2x2--3-2-1-0----| 
D|------------------------|------------------------| 


And after that Omi Plays 

e|-------------------------------|-------------------------------| 
B|-------------------------------|-------------------------------| 
G|--7---7-6--7--9----9---7--6----|--7---7-6--7--9---9---7--6-----| 
D|----4-----------4----4--4--4---|----4-----------4---4--4-------| 
A|-------------------------------|-------------------------------| 
D|-------------------------------|-------------------------------| 

Then you play this (It's Refrain/Chorus) 

Miko's Part 

e|-------------------------------------| 
B|-------------------------------------| 
G|-----------7--7-7--------------------|  
D|--9--9-9---7--7-7---5--5-5---7--7-7--| SHE PLAYS IT FOUR TIMES 
A|--9--9-9---5--5-5---5--5-5---7--7-7--| 
D|--9--9-9------------5--5-5---7--7-7--| 

Omi's Part 

e|---------------------------------|-------------------------------| 
B|---------------------------------|-------------------------------| 
G|--4--4---7--7---6-7--7h8-7h8-7-5-|--4--4---7--7---7--9--12-12----|  
D|---4--4---7--7--4-5--------------|---4--4---7--7--5--7--10-10----|  
A|---------------------------------|-------------------------------|  
D|---------------------------------|-------------------------------| 

Then Omi Plays 

e|------------------------| 
B|------------------------| 
G|------------------------| 
D|--4--4h5-4h5-4--4--4--5-| 
A|--2--2h3-2h3-2--2--2--3-| 
D|------------------------| 


And Miko Plays 


e|-----------------------------------------------------------------------------------------------| 
B|--12p0-11p0-10p0-7p0-8p0---12p0-11p0-10p0-7p0-8p0---12p0-11p0-10p0-7p0-8p0---12p0-11p0-10p0-7p0| 
G|-----------------------------------------------------------------------------------------------| 
D|-----------------------------------------------------------------------------------------------| 
A|-----------------------------------------------------------------------------------------------| 
D|-----------------------------------------------------------------------------------------------| 

And then She plays 


e|---------------------------------------------------------------------------------------------| 
B|---------------------------------------------------------------------------------------------| 
G|---------------------------------------------------------------------------------------------| 
D|--4--4-4-4-4-4-4-4-4-4-4-4-4-4-Two-times-----------------------------------------------------| 
A|--2--2-2-2-2-2-2-2-2-2-2-2-2-2-----------0--0-0-0-0--0--0-0-0-0---2--2-2-2-2--2--2-2-2-2-----| 
D|-----------------------------------------0--0-0-0-0--0--0-0-0-0---2--2-2-2-2--2--2-2-2-2-----| 

					      . . . .     . . . .      . . . .     . . .  


And Omi plays 

e|------------------------| 
B|--3-2--3-2---3-2--3-2---| 
G|------------------------| Few times... 
D|------------------------|  
A|------------------------| 
D|------------------------| 


Then Miko plays 

e|------------------------|------------------------| 
B|------------------------|------------------------| 
G|------------------------|------------------------| 
D|--4x4~--~4x4--5-4-3-2---|-4x4~--~4x4--5-4-3-2----| 
A|--2x2----2x2--3-2-1-0---|-2x2----2x2--3-2-1-0----| 
D|------------------------|------------------------| 


And after that Omi Plays 

e|-------------------------------|-------------------------------| 
B|-------------------------------|-------------------------------| 
G|--7---7-6--7--9----9---7--6----|--7---7-6--7--9---9---7--6-----| 
D|----4-----------4----4--4--4---|----4-----------4---4--4-------| 
A|-------------------------------|-------------------------------| 
D|-------------------------------|-------------------------------| 


And then there is again Refrain/Chorus 

Miko's Part 

e|-------------------------------------| 
B|-------------------------------------| 
G|-----------7--7-7--------------------|  
D|--9--9-9---7--7-7---5--5-5---7--7-7--| SHE PLAYS IT FOUR TIMES 
A|--9--9-9---5--5-5---5--5-5---7--7-7--| 
D|--9--9-9------------5--5-5---7--7-7--| 

Omi's Part 

e|---------------------------------|-------------------------------| 
B|---------------------------------|-------------------------------| 
G|--4--4---7--7---6-7--7h8-7h8-7-5-|--4--4---7--7---7--9--12-12----|  
D|---4--4---7--7--4-5--------------|---4--4---7--7--5--7--10-10----|  
A|---------------------------------|-------------------------------|  
D|---------------------------------|-------------------------------| 

And then we have a hard riff 

							 * - pinch harmonic  
e|----------------------------------------|----------------------------------------| 
B|----------------------------------------|----------------------------------------| 
G|-----------------------------------7~~--|----------------------------------------|   
D|--3-5-6--3-5-6--3-5-6--3-5-6--3-3--7~~--|--3-5-6--3-5-6--3-5-6--3-5-6--3-3-------|   
A|--3-5-6--3-5-6--3-5-6--3-5-6--3-3-------|--3-5-6--3-5-6--3-5-6--3-5-6--3-3--3*---| 
D|--3-5-6--3-5-6--3-5-6--3-5-6--3-3-------|--3-5-6--3-5-6--3-5-6--3-5-6--3-3-------| 
    . . .  . . .  . . .  . . .               . . .  . . .  . . .  . . .    

Second time... 
e|----------------------------------------|----------------------------------------| 
B|----------------------------------------|----------------------------------------| 
G|----------------------------------------|----------------------------------------|   
D|--3-5-6--3-5-6--3-5-6--3-5-6--3-3-------|--3-5-6--3-5-6--3-5-6--3-5-6--3-3-------|   
A|--3-5-6--3-5-6--3-5-6--3-5-6--3-3-------|--3-5-6--3-5-6--3-5-6--3-5-6--3-3--3*---| 
D|--3-5-6--3-5-6--3-5-6--3-5-6--3-3-------|--3-5-6--3-5-6--3-5-6--3-5-6--3-3-------| 

    . . .  . . .  . . .  . . .               . . .  . . .  . . .  . . .   


e|-------------------------------| 
B|-------------------------------| 
G|-------------------------------| 
D|-------------------------------| 
A|--3-5-6--3-5-6--3-5--7-7--9-9--| 
D|--3-5-6--3-5-6--3-5--7-7--9-9--| 

    . . .  . . .  . .       
~ And then the SOLO ~ 

Omi plays the first part alone 

e|-14----14b(15)-14----14b(15)-14-----14b(15)----12-| 
B|----12------------12------------12----------14----| 
G|--------------------------------------------------| 
D|--------------------------------------------------| 
A|--------------------------------------------------| 
D|--------------------------------------------------| 

Then she plays 

e|-------14----12-----------15---14------14p0-14p0--12p0-12p0-------------------------| 
B|-12-12----12----12--12-12---12----12-------------------------14p0-14p0--15p0-15p0---| 
G|------------------------------------------------------------------------------------| 
D|------------------------------------------------------------------------------------| 
A|------------------------------------------------------------------------------------| 
D|------------------------------------------------------------------------------------| 


*note* There's a harmony which Miko and Omi play together  
	       Miko plays this part   

e|--------7---7/9-------|--17----15-14--------------| 
B|------------------10--|--------------14-----------| 
G|--/11-----------------|---------------------14----| 
D|----------------------|---------------------------| 
A|----------------------|---------------------------| 
D|----------------------|---------------------------| 

(And Omi plays this part) 
(When you're listening on headphones She plays the right guitar) 

e|------------------------------| 
B|--/15--14---------15--14--17--| 
G|----------14---11-------------| 
D|------------------------------| 
A|------------------------------| 
D|------------------------------| 

And then Miko plays 

e|-----------------------------------------------| 
B|------------/10--10-10--/12--12-12--/14--14-14-| 
G|-/11--11-11------------------------------------| 
D|-----------------------------------------------| 
A|-----------------------------------------------| 
D|-----------------------------------------------| 

And the lead guitar (Omi) Plays this part  
(You can hear this part much better on headphones) 

e|--------------------------------------------------| 
B|-12-14-15--12-14-15------14-15-17--14-15-17-------| 
G|--------------------------------------------------| 
D|--------------------------------------------------| 
A|--------------------------------------------------| 
D|--------------------------------------------------| 



e|--------------------------|-------------------------|-----| 
B|-14h15-14h15--15h17-15h17-|-15h17h19--Play-4-times--|-19b-| 
G|--------------------------|-------------------------|-----| 
D|--------------------------|-------------------------|-----| 
A|--------------------------|-------------------------|-----| 
D|--------------------------|-------------------------|-----| 

Omi plays: 

e|------------| 
B|--5~~--7~~--| 
G|--4~~--6~~--| 
D|--2~~--4~~--| 
A|------------| 
D|------------| 

And Miko plays 

e|-------------------------------| 
B|-------------------------------| 
G|--7-7-7-7-9-9-9-9-11-11-11-11--| 
D|--x-x-x-x-x-x-x-x-x--x--x--x---| 
A|--5-5-5-5-7-7-7-7-9--9--9--9---| 
D|-------------------------------| 

And the refrain again 

Miko's Part 

e|-------------------------------------| 
B|-------------------------------------| 
G|-----------7--7-7--------------------|  
D|--9--9-9---7--7-7---5--5-5---7--7-7--| SHE PLAYS IT FOUR TIMES 
A|--9--9-9---5--5-5---5--5-5---7--7-7--| 
D|--9--9-9------------5--5-5---7--7-7--| 

Omi's Part 

e|---------------------------------|-------------------------------| 
B|---------------------------------|-------------------------------| 
G|--4--4---7--7---6-7--7h8-7h8-7-5-|--4--4---7--7---7--9--12-12----|  
D|---4--4---7--7--4-5--------------|---4--4---7--7--5--7--10-10----|  
A|---------------------------------|-------------------------------|  
D|---------------------------------|-------------------------------| 

THE OUTRO 

Omi's Part 
e|------------------------| 
B|------------------------| 
G|------------------------| 
D|--4--4h5-4h5-4--4--4--5-| 
A|--2--2h3-2h3-2--2--2--3-| 
D|------------------------| 

And Miko's Part 

e|--------------------------------------------------------------| 
B|--12p0-11p0-10p0-7p0-8p0---12p0-11p0-10p0-7p0-8p0---12p0-11p0-| 
G|--------------------------------------------------------------| 
D|--------------------------------------------------------------| 
A|--------------------------------------------------------------| 
D|--------------------------------------------------------------| 

-----------------------------------------| 
10p0-7p0-8p0---12p0-11p0-15p0-14p0-13p0--| 
-----------------------------------------| 
-----------------------------------------| 
-----------------------------------------| 
-----------------------------------------| 

e|-----------------------------------------------------------------------------------------------| 
B|--12p0-11p0-10p0-7p0-8p0---12p0-11p0-10p0-7p0-8p0---12p0-11p0-10p0-7p0-8p0---12p0-11p0-10p0-7p0| 
G|-----------------------------------------------------------------------------------------------| 
D|-----------------------------------------------------------------------------------------------| 
A|-----------------------------------------------------------------------------------------------| 
D|-----------------------------------------------------------------------------------------------| 


e|----------------------------------------|----------------------------------------| 
B|----------------------------------------|----------------------------------------| 
G|----------------------------------------|----------------------------------------|   
D|--3-5-6--3-5-6--3-5-6--3-5-6--3-3-------|--3-5-6--3-5-6--3-5-6--3-5-6--3-3-------|   
A|--3-5-6--3-5-6--3-5-6--3-5-6--3-3--3*---|--3-5-6--3-5-6--3-5-6--3-5-6--3-3-------| 
D|--3-5-6--3-5-6--3-5-6--3-5-6--3-3-------|--3-5-6--3-5-6--3-5-6--3-5-6--3-3-------| 

    . . .  . . .  . . .  . . .               . . .  . . .  . . .  . . . 
share this page

See Also: