E-Chords
Exercise

Ultimate Beginner Fingerstyle Lesson(Tabs)

Exercise

roll up this ad to continue

Ex: 1  

|-0--------0--------0-|  
|---0---0----0---0----|  
|-----0--------0------|  
|---------------------|  
|---------------------|  
|-0--------0--------0-|  

Ex: 2  

|-0--------0--------2--------2-------4-------4-------5-------|  
|---0---0----0---0----0---0----0---0---0---0---0---0---0---0-|  
|-----0--------0--------0--------0-------0-------0-------0---|  
|------------------------------------------------------------|  
|------------------------------------------------------------|  
|-0--------0--------0--------0-------0-------0-------0-------|  

|-5--------7--------7--------9-------9-------11-------11---------|  
|---0---0----0---0----0---0----0---0---0---0----0---0----0---0---|  
|-----0--------0--------0--------0-------0--------0--------0-----|  
|----------------------------------------------------------------|  
|----------------------------------------------------------------|  
|-0--------0--------0--------0-------0--------0--------0---------|  

|-Hn12--|  
|-Hn12--|  
|-Hn12--|  
|-------|  
|-------|  
|----0--|  

Ex: 3  

|-2--------2--------2/4-----4--------4\2-----2---2h4p2p0--0-|  
|---0---0----0---0------0-----0---0------0-----0------------|  
|-----0--------0----------0-----0----------0----------------|  
|-----------------------------------------------------------|  
|-----------------------------------------------------------|  
|-0--------0--------0----------------0--------------------0-|  

|-2-------2-----2--2/4-----4--------4\2-----2---2h4p2p0---0-Hn12-|  
|---0---0---0----------0-----0---0------0-----0-------------Hn12-|  
|-----0-------0----------0-----0----------0-----------------Hn12-|  
|----------------------------------------------------------------|  
|-0----------------0----------------0--------------------4~----0-|  
|----------------------------------------------------------------|  

Ex: 04  

|-0-----2p0---0-----0-----2p0---0----hn12-|  
|---0-------4---------0-------0------hn12-|  
|-----0-----------------0------------hn12-|  
|-----------------------------------------|  
|------------------0----------------------|  
|-0-------------0------------------0------|  

Ex: 05  

|-------0-------0-------0-------0------0------0------0---|  
|-----0-------0-------0-------0------0------0------0-----|  
|--------------------------------------------------------|  
|-2h4-----2h4-----4h6-----4h6-----6h7----4h6----2h4----2-|  
|--------------------------------------------------------|  
|--------------------------------------------------------| 
share this page

See Also: