E-Chords
Exercise

Toccata And Fugue In D Minor(Tabs)

Exercise

roll up this ad to continue

Watch the video lesson
Part 1 

|------------------------------------------------------| 
|----0-----0-----0-----0-----0-----0-----0-----0-----0-| 
|-------2-----0-----------------------------------0----| 
|-------------------4-----2-----1-----2-----4----------| 
|------------------------------------------------------| 
|-0----------------------------------------------------| 

Part 2 

|------------------------------------------------| 
|----0-----0-----0-----0-----0-----0-----0-----0-| 
|-------------------------------------------0----| 
|-------------1-----2-----1-----2-----4----------| 
|-2-----4----------------------------------------| 
|------------------------------------------------| 

Part 3 

|----0-----0-----0-----0-----0-----0-----0-----0-----0-| 
|-------3-----1-----0-----------------------0-----1----| 
|-------------------------2-----1-----2----------------| 
|------------------------------------------------------| 
|-0----------------------------------------------------| 
|------------------------------------------------------| 

Part 4 

|----0-----0-----0-----0-----0-----0-----0-----0-| 
|-------------------------------------0-----1----| 
|-------4-----1-----2-----1-----2----------------| 
|-2----------------------------------------------| 
|------------------------------------------------| 
|------------------------------------------------| 

Part 5 

|-----2-------0-------------| 
|----0-------0--------------| 
|---2-------2----1-------1--| 
|--1-------2-------4----2---| 
|-2-------2------------2----| 
|--------0------------0-----| 
share this page

See Also: