E-Chords
Exercise

How To Tap Guitar(Tabs)

Exercise

roll up this ad to continue

Ex 1 
|-12t-5--|----| 
|--------|----| 
|--------|-6X-| 
|--------|----| 
|--------|----| 
|--------|----| 


Ex 2 
|-12t--5h8-|----| 
|----------|----| 
|----------|-4X-| 
|----------|----| 
|----------|----| 
|----------|----| 


Ex 3 
|-12t--8p5p0h5h8-|----| 
|----------------|----| 
|----------------|-4X-| 
|----------------|----| 
|----------------|----| 
|----------------|----| 


Ex 4 
|-12t-5h8---------|-----| 
|---------12t-5h8-|-----| 
|-----------------|-(5X)| 
|-----------------|-----| 
|-----------------|-----| 
|-----------------|-----| 


Ex 5 
|-17t-12p8-12t-8-------------------------------8-12t-8h12-17t-| 
|----------------10h13t10p-----------10h13t10p----------------| 
|--------------------------9h-14t-9h--------------------------| 
|-------------------------------------------------------------| 
|-------------------------------------------------------------| 
|-------------------------------------------------------------| 


Ex6 
|-----------------12t-5h9-12t-9p5------------| 
|--------------------------------------------| 
|---------14t-6h9-----------------9-14t-9p6--| 
|-14t-7h9----------------------------------7-| 
|--------------------------------------------| 
|--------------------------------------------| 
share this page

See Also: