E-Chords
Exercise

How To Play Synyster Gates(Tabs)

Exercise

roll up this ad to continue

ex 1  

|22-22-17----------17-21-21-17----------17-20-20-17--------------|  
|---------18-17-18-------------18-17-18-------------18-17-18-----|  
|----------------------------------------------------------------|  
|----------------------------------------------------------------|  
|----------------------------------------------------------------|  
|----------------------------------------------------------------|  

|--17-19-17----------17-22-|  
|----------18-17-18--------|  
|--------------------------|  
|--------------------------|  
|--------------------------|  
|--------------------------|  

ex2  

|17p13----------13h17p13----------13---|  
|-----15------15--------15------15-----|  
|-------14--14------------14--14-------|  
|---------15----------------15---------|  
|--------------------------------------|  
|--------------------------------------|  

|16p12------------12h16p12-------------12-|  
|-----------------------------------------|  
|-----16p13--13h16--------16p13--13h16----|  
|----------14------------------14---------|  
|-----------------------------------------|  
|-----------------------------------------|  

|15p12------------12h15p12-------------12-|  
|-----------------------------------------|  
|-----15p12--12h15--------15p12--12h15----|  
|----------14------------------14---------|  
|-----------------------------------------|  
|-----------------------------------------|  

|13p10-------------10h13p10-------------10-|  
|------------------------------------------|  
|-----14p10---10h14--------14p10--10h14----|  
|-----------12------------------12---------|  
|------------------------------------------|  
|------------------------------------------|  

ex 3  

|--------------------------------------------------------|  
|---------------------------------13-14-15/18~-15-18-14~-|  
|----------10-14-13~-9~--12-13-14------------------------|  
|--------12----------------------------------------------|  
|------12------------------------------------------------|  
|10-13---------------------------------------------------|  

ex 4  

|----10-13p10----10-15p10---10-13p10----10-15p10----10-|  
|-13----------13---------13----------13----------13----|  
|------------------------------------------------------|  
|------------------------------------------------------|  
|------------------------------------------------------|  
|------------------------------------------------------|  

ex 5  

|17------------------------13-14-15-16-|  
|--------------14-15-16-17-------------|  
|--14-15-16-17-------------------------|  
|--------------------------------------|  
|--------------------------------------|  
|--------------------------------------|  

|---------------------------12-13-14-15-|  
|--------------13-14-15-16--------------|  
|-13-14-15-16---------------------------|  
|---------------------------------------|  
|---------------------------------------|  
|---------------------------------------|  

|---------------------------10-11-12-13-|  
|--------------11-12-13-14--------------|  
|-11-12-13-14---------------------------|  
|---------------------------------------|  
|---------------------------------------|    
|---------------------------------------|  

ex6  

|--10-9-8-9-10-9-8-9----13-12-11-12-13-12-11-12-|  
|-----------------------------------------------|  
|-----------------------------------------------|  
|-----------------------------------------------|  
|-----------------------------------------------|  
|-----------------------------------------------|  

|--18-17-16-17-18-17-16-17----22-21-20-21-22-21-20-21-22-|  
|--------------------------------------------------------|  
|--------------------------------------------------------|  
|--------------------------------------------------------|  
|--------------------------------------------------------|  
|--------------------------------------------------------|  

ex 7  

|--------13-17-13-17-12-|  
|------15---------------|  
|----14-----------------|  
|--15-------------------|  
|17---------------------|  
|-----------------------| 
share this page

See Also: