E-Chords
Exercise

How To Play Paul Gilbert Style(Tabs)

Exercise

roll up this ad to continue

Watch the video lesson
ex 1 
|8p5---------5-----------5------8p5---------5-----------5-----| 
|-------------------------------------------------------------| 
|---9p5--5h9---9p5---5h9---9p5-----9p5--5h9---9p5---5h9---9p5-| 
|-------7----------7-------------------7----------7-----------| 
|-------------------------------------------------------------| 
|-------------------------------------------------------------| 


ex 2 

|8p5---------5--7p5-----8p5-----8p5---------5--7p5----8p5--------| 
|------------------------------------------------------------7b9-| 
|---9p5--5h9--------9p5----9p5------9p5--5h9-------9p5---9p5-----| 
|-------7-------------------------------7------------------------| 
|----------------------------------------------------------------| 
|----------------------------------------------------------------| 



ex 3 
|8-10-12-10-8---------------8---------------| 
|-------------------------------------------| 
|-------------12-10-9-10-12---12-10-9-10-12-| 
|-------------------------------------------| 
|-------------------------------------------| 
|-------------------------------------------| 

|--------------------------------------------| 
|8-10-12-10-8---------------8----------------| 
|--------------------------------------------| 
|-------------12-10-9-10-12----12-10-9-10-12-| 
|--------------------------------------------| 
|--------------------------------------------| 

ex 4 
|5h7h8p7p5----------5-----------5h7h8p7p5----------5-----------| 
|--------------------------------------------------------------| 
|---------9-7-5-7-9---9-7-5-7-9----------9-7-5-7-9---9-7-5-7-9-| 
|--------------------------------------------------------------| 
|--------------------------------------------------------------| 
|--------------------------------------------------------------| 

|----------------------------------------------------------------| 
|5h6h8p6p5-----------5------------5h6h8p6p5-----------5----------| 
|----------------------------------------------------------------| 
|----------9-7-5-7-9----9-7-5-7-9-----------9-7-5-7-9---9-7-5-7-9| 
|----------------------------------------------------------------| 
|----------------------------------------------------------------| 

ex 5 
|10-12-13-12-10------------------------------------------------| 
|--------------13-12-10-13-12-10-------------------------------| 
|-------------------------------12-10-9-12-10-9----------------| 
|----------------------------------------------12-10-9-12-10-9-| 
|--------------------------------------------------------------| 
|--------------------------------------------------------------| 

|---------------------------------| 
|---------------------------------| 
|---------------------------------| 
|---------------------------------| 
|12-10-8-12-10-8------------------| 
|----------------12-10-8-12-10-8~-| 


ex 6       
|8p5--------5-8/13p10-----------10--7p3-------3-7/12p8----------8| 
|----------------------------------------------------------------| 
|---9p5-5h9--------14p10--10h14-------7p4-4h7--------12p9--9h12--| 
|------7----------------12---------------5---------------10------| 
|----------------------------------------------------------------| 
|----------------------------------------------------------------| 

|5p1-------1--5p2-------2--7p3-------3--7p4--------4--------| 
|-----------------------------------------------------8b10--| 
|---5p2-2h5------5p2-2h5------7p4-4h7------7p4-4h7----------| 
|------3------------4------------5------------6-------------| 
|-----------------------------------------------------------| 
|-----------------------------------------------------------| 

ex7 

|---------------------------------------------------------| 
|---------------------------------------------------------| 
|------------------------------------14-16-17-16-14-16-17-| 
|----------------------------14h15h17---------------------| 
|--------12-14-15-14-12-14-15-----------------------------| 
|12h13h15-------------------------------------------------| 

|---------17-19-20-19-17-19-20-| 
|17h18h20----------------------| 
|------------------------------| 
|------------------------------| 
|------------------------------| 
|------------------------------| 

ex 8 
|17-19-20-19-17-15-19-17-15----------15-17-19-17-15-13-17-15-13--| 
|---------------------------18-17-18-----------------------------| 
|----------------------------------------------------------------| 
|----------------------------------------------------------------| 
|----------------------------------------------------------------| 
|----------------------------------------------------------------| 

|---------13-15-17-15-13-12-15-13-12----------12-13-15-13-12-10--| 
|17-15-17----------------------------15-13-15--------------------| 
|----------------------------------------------------------------| 
|----------------------------------------------------------------| 
|----------------------------------------------------------------| 
|----------------------------------------------------------------| 

|13-12-10----------10-12-13-12-10-8-12-10-8----------8-10-12-10-8| 
|---------13-12-13--------------------------12-10-12-------------| 
|----------------------------------------------------------------| 
|----------------------------------------------------------------| 
|----------------------------------------------------------------| 
|----------------------------------------------------------------| 

|7-10-8-7---------7-8-10-8-7-5-8-7-5-------5-7-8-7-5-------| 
|---------10-8-10--------------------8-6-8-----------8b10--| 
|----------------------------------------------------------| 
|----------------------------------------------------------| 
|----------------------------------------------------------| 
|----------------------------------------------------------| 



ex 9 

|----------------------------------------------------5-| 
|--------------------------------------------------5---| 
|----5-7-5-------5-9-5-------5-7-5-9-5-7-5-------5-----| 
|5-7-------7-5-7-------7-5-7---------------7-5-7-------| 
|------------------------------------------------------| 
|------------------------------------------------------| 
share this page

See Also: