E-Chords
Exercise

How To Play Joe Satriani Style(Tabs)

Exercise

roll up this ad to continue

Watch the video lesson
ex1 

|---------12--------| 
|------12----15p12--| 
|14b16--------------| 
|-------------------| 
|-------------------| 
|-------------------| 

ex2 
5X            5X          5X 
|15p12p10--I--17p15p12-I--19p17p15-20B22--| 
|----------I-----------I------------------| 
|----------I-----------I------------------| 
|----------I-----------I------------------| 
|----------I-----------I------------------| 
|----------I-----------I------------------| 

EX 3 
-12h14h15p14p12/10h12h14p12p10-------------------------------------- 
-------------------------------13p12p10----------------------------- 
----------------------------------------12p11p10/7h9h11p9p7--------- 
-------------------------------------------------------------------- 
-------------------------------------------------------------------- 
-------------------------------------------------------------------- 

-------------------------------------------------------------------- 
-------------------------------------------------------------------- 
-------------------------------------------------------------------- 
-10p9p7-------------------------------------------------------------- 
--------10p9p7/5h7h9p7p5/7-------------------------------------------- 
-------------------------------------------------------------------- 

ex 4 

20p19--19p17-17p15-15p14-15p12-------------------------------------- 
-------------------------------------------------------------------- 
-------------------------------------------------------------------- 
-------------------------------------------------------------------- 
-------------------------------------------------------------------- 
-------------------------------------------------------------------- 
ex 5 
-------------------------------------------------------------------- 
-------------------------------------------12h13h15--------12h13h15- 
------------------11h12h14---------11h12h14--------11h12h14--------- 
---------10h12h14---------10h12h14---------------------------------- 
10h12h14------------------------------------------------------------ 
-------------------------------------------------------------------- 

12h14h15p14p12----12------------------------------------------------ 
---------------15----15b17------------------------------------------ 
-------------------------------------------------------------------- 
-------------------------------------------------------------------- 
-------------------------------------------------------------------- 
-------------------------------------------------------------------- 


ex 6 
-14h15h17p15p14----------------------------------------------------- 
----------------15-------------------------------------------------- 
-------------------14/12/11h12h14p12p11----------------------------- 
----------------------------------------12-------------------------- 
-------------------------------------------12/10/9h10h12p10p9------- 
--------------------------------------------------------------10---- 


ex7 
--------------------------12h15-15/22-20------------------------ 
--------------------12h13--------------------------------------- 
---------------9h12--------------------------------------------- 
----------9h10-------------------------------------------------- 
-----7h10------------------------------------------------------- 
-7h8------------------------------------------------------------ 


ex 8 

-10p12p14p15t-I-12p14p15p17t-I-14P15P17P19T-I-15P17P19P20TI-22TB24------ 
--------------I--------------I--------------I-------------I------------- 
--------------I--------------I--------------I-------------I------------- 
--------------I--------------I--------------I-------------I------------- 
--------------I--------------I--------------I-------------I------------- 
--------------I--------------I--------------I-------------I------------- 

EX 9 

17H19P17/15-15H17P15/14-14H15P14/12-12H14P12/10-10H12P10/8---------- 
-------------------------------------------------------------------- 
-------------------------------------------------------------------- 
-------------------------------------------------------------------- 
-------------------------------------------------------------------- 
-------------------------------------------------------------------- 

8H10P8/7-7H8P7/5-5H7P5/3H5------------------------------------------ 
-------------------------------------------------------------------- 
-------------------------------------------------------------------- 
-------------------------------------------------------------------- 
-------------------------------------------------------------------- 
-------------------------------------------------------------------- 
share this page

See Also: