E-Chords
Exercise

How To Play Joe Bonamassa Style(Tabs)

Exercise

roll up this ad to continue

Watch the video lesson
Riff 1 

|-14-------------------------------------| 
|----17p14----17p14----------------14-17-| 
|----------16-------16p14----14h16-------| 
|-------------------------16-------------| 
|----------------------------------------| 
|----------------------------------------| 


Riff 2 

|----------14-17p16p14----16h14-------| 
|----14-17-------------17-------17h14-| 
|-16----------------------------------| 
|-------------------------------------| 
|-------------------------------------| 
|-------------------------------------| 


Riff 3 

|----------14-19p16p14----16p14-------| 
|----14-17-------------17-------17p14-| 
|-16----------------------------------| 
|-------------------------------------| 
|-------------------------------------| 
|-------------------------------------| 


Riff 4 

|----------------------------------------| 
|----14-17p14----17p14----17p14----------| 
|-16----------16-------16-------16p14----| 
|-------------------------------------16-| 
|----------------------------------------| 
|----------------------------------------| 


Riff 5 

|-------------14-17-16p14----16p14-------14----------------------| 
|-------14h17-------------17-------17-14----17p14----17p14-------| 
|-14h16-------------------------------------------16-------16p14-| 
|----------------------------------------------------------------| 
|----------------------------------------------------------------| 
|----------------------------------------------------------------| 

|-------------| 
|-------------| 
|----14/15----| 
|-16-------16-| 
|-------------| 
|-------------| 
share this page

See Also: