E-Chords
Exercise

How To Improve Speed On Guitar(Tabs)

Exercise

roll up this ad to continue

Ex1

|--------------------------------8h10h12-| 
|------------------------8h10h12---------| 
|------------------5h7h9-----------------| 
|------------5h7h9-----------------------| 
|------3h5h7-----------------------------| 
|3h5h7-----------------------------------| 


Ex 2 

|-------------------------17h19-19b20-19-17-------| 
|--------------------17h18-----------------16b17--| 
|---------------14h16-----------------------------| 
|----------14h15----------------------------------| 
|-----12h14---------------------------------------| 
|12h13--------------------------------------------| 



Ex 3 

|13-12-10-------------------------------------------------| 
|-----------13-12-10-9-10-12-10-9-------------------------| 
|---------------------------------9-10-9-7----------------| 
|-----------------------------------------10-9-7-6-7-9-7-6| 
|---------------------------------------------------------| 
|---------------------------------------------------------| 

|----------------------------| 
|----------------------------| 
|----------------------------| 
|----------------------------| 
|7-8-7-5---------------------| 
|--------8-7-5-4-5-7-5-4-1-0-| 


Ex 4 

|-----------------------5-7-8--8-7-5------------------------| 
|-----------------5-6-8--------------8-6-5------------------| 
|-----------4-5-7--------------------------7-5-4------------| 
|-----3-5-7--------------------------------------7-5-3------| 
|3-5-7------------------------------------------------7-5-3-| 
|----------------------------------------------------------| 


Ex 5 

|-----------12h15h17h19h22tp19p17p15p12------------| 
|---------13---------------------------13----------| 
|-------14-------------------------------14--------| 
|-----14-----------------------------------14------| 
|12h15---------------------------------------15p12-| 
|--------------------------------------------------| 


Ex 6 

|------------------------------5-----------8--| 
|------5-----------8--------------------------| 
|5h7h8---8p7p5h7h8---8p7p5h7h8---8p7p5h7h8----| 
|---------------------------------------------| 
|---------------------------------------------| 
|---------------------------------------------| 
share this page

See Also: