E-Chords
Exercise

Galloping Picking(Tabs)

Exercise

roll up this ad to continue

Watch the video lesson
ex1 

---------------------------------------------------------------- 
---------------------------------------------------------------- 
---------------------------------------------------------------- 
--2------------------------------------------------------------- 
--2------------------------------------------------------------- 
--0---0--0--0----0--0--0---------------------------------------- 



---------------------------------------------------------------- 
---------------------------------------------------------------- 
---------------------------------------------------------------- 
--2------------------------------------------------------------- 
--2------------------------------------------------------------- 
--0---0--0--0----0--0--0----0--0--0----0--0--------------------- 



EX2 


---------------------------------------------------------------- 
---------------------------------------------------------------- 
---------------------------------------------------------------- 
--9------------------------------------------------------------- 
--7------------------------------------------------------------- 
---------------------------------------------------------------- 


---------------------------------------------------------------- 
---------------------------------------------------------------- 
---------------------------------------------------------------- 
--5------------------------------------------------------------- 
--3------------------------------------------------------------- 
---------------------------------------------------------------- 


---------------------------------------------------------------- 
---------------------------------------------------------------- 
---------------------------------------------------------------- 
--9------------------------------------------------------------- 
--7------------------------------------------------------------- 
-----0--0--0----0--0--0----0--0--0----0--0---------------------- 


---------------------------------------------------------------- 
---------------------------------------------------------------- 
---------------------------------------------------------------- 
--5------------------------------------------------------------- 
--3------------------------------------------------------------- 
-----0--0--0----0--0--0----0--0--0----0--0---------------------- 


---------------------------------------------------------------- 
---------------------------------------------------------------- 
---------------------------------------------------------------- 
--5------------------------------------------------------------- 
--3------------------------------------------------------------- 
-----0--0--0----0--0--0----0--0--0----0--0--0------------------- 



EX3 


---------------------------------------------------------------- 
---------------------------------------------------------------- 
---------------------------------------------------------------- 
--9------------------------------------------------------------- 
--7--7--7--7----7--7--7----7--7--7----7--7---------------------- 
---------------------------------------------------------------- 

   
---------------------------------------------------------------- 
---------------------------------------------------------------- 
---------------------------------------------------------------- 
-10------------------------------------------------------------- 
--7--7--7--7----7--7--7----7--7--7----7--7---------------------- 
---------------------------------------------------------------- 


---------------------------------------------------------------- 
---------------------------------------------------------------- 
---------------------------------------------------------------- 
-11------------------------------------------------------------- 
--7--7--7--7----7--7--7----7--7--7----7--7---------------------- 
---------------------------------------------------------------- 


---------------------------------------------------------------- 
---------------------------------------------------------------- 
---------------------------------------------------------------- 
-10--------------------------------------------2---------------- 
--7--7--7--7----7--7--7----7--7--7----7--7-----2---------------- 
-----------------------------------------------0---------------- 



EX4 


---------------------------------------------------------------- 
---------------------------------------------------------------- 
---------------------------------------------------------------- 
--5------------------------------------------------------------- 
--3--3--3--3----3--3-------------------------------------------- 
---------------------------------------------------------------- 


---------------------------------------------------------------- 
---------------------------------------------------------------- 
---------------------------------------------------------------- 
--4------------------------------------------------------------- 
--3--3--3--3----3--3-------------------------------------------- 
---------------------------------------------------------------- 


EX5 - THE TROOPER 
  
---------------------------------------------------------------- 
---------------------------------------------------------------- 
---------------------------------------------------------------- 
----5------9---------------------------------------------------- 
--5---5----7----7--7--7----7--7--7----7--7--7----7--7--7-------- 
---------------------------------------------------------------- 
  


---------------------------------------------------------------- 
---------------------------------------------------------------- 
---------------------------------------------------------------- 
----5------9---------------------------------------------------- 
--5---5----7----7--7--7----7--7--7----7--7--7------------------- 
---------------------------------------------------------------- 


---------------------------------------------------------------- 
---------------------------------------------------------------- 
---------------------------------------------------------------- 
----5------5---------------------------------------------------- 
--5---5----3----3--3--3----3--3--3----3--3--3------------------- 
---------------------------------------------------------------- 



---------------------------------------------------------------- 
---------------------------------------------------------------- 
---------------------------------------------------------------- 
----5------9---------------------------------------------------- 
--5---5----7----7--7--7----7--7--7----7--7--7------------------- 
---------------------------------------------------------------- 


---------------------------------------------------------------- 
---------------------------------------------------------------- 
---------------------------------------------------------------- 
----5------9---------------------------------------------------- 
--5---5----7---------------------------------------------------- 
---------------------------------------------------------------- 


share this page

See Also: