E-Chords
Exercise

5 Variations Of C Major Scales(Tabs)

Exercise

roll up this ad to continue

1st Variation 

e|------------------------3-5-7-5-3----------------------------| 
B|------------------3-5-6-----------6-5-3----------------------| 
G|------------2-4-5-----------------------5-4-2----------------| 
D|------2-3-5-----------------------------------5-3-2----------| 
A|--2-5-----------------------------------------------5-3------| 
E|-------------------------------------------------------------| 
2nd Variation
e|--------------------------5-7-8-7-5--------------------------| 
B|--------------------5-6-8-----------8-6-5--------------------| 
G|--------------4-5-7-----------------------7-5-4--------------| 
D|----------5-7-----------------------------------7-5----------| 
A|----5-7-8-------------------------------------------8-7-5----| 
E|--8-------------------------------------------------------8--| 
3rd Variation
e|---------------------------------7-8-10-8-7------------------| 
B|----------------------------8-10------------10-8-------------| 
G|---------------------7-9-10----------------------10-9-7------| 
D|--------------7-9-10------------------------------------10-9-| 
A|-------7-8-10------------------------------------------------| 
E|--8-10-------------------------------------------------------| 
e|-------------------------------------------------------------| 
B|-------------------------------------------------------------| 
G|-------------------------------------------------------------| 
D|--7----------------------------------------------------------| 
A|----10-8-7---------------------------------------------------| 
E|-----------10-8----------------------------------------------| 
4th Variation
e|-------------------------------------------10-12-13-10-12----| 
B|----------------------------------10-12-13-------------------| 
G|--------------------------9-10-12----------------------------| 
D|------------------9-10-12------------------------------------| 
A|----------8-10-12--------------------------------------------| 
E|--8-10-12----------------------------------------------------| 
e|-------------------------------------------------------------| 
B|--13-12-10---------------------------------------------------| 
G|-----------12-10-9-------------------------------------------| 
D|-------------------12-10-9-----------------------------------| 
A|---------------------------12-10-8---------------------------| 
E|-----------------------------------12-10-8-------------------| 
5th Variation
e|-----------------------------12-13-15-13-12------------------| 
B|--------------------12-13-15----------------15-13-12---------| 
G|--------------12-14----------------------------------12-14---| 
D|-----12-14-15------------------------------------------------| 
A|--15---------------------------------------------------------| 
E|-------------------------------------------------------------| 
e|-------------------------------------------------------------| 
B|-------------------------------------------------------------| 
G|-------------------------------------------------------------| 
D|--12-14-15---------------------------------------------------| 
A|-----------15------------------------------------------------| 
E|-------------------------------------------------------------|
share this page

See Also: