E-Chords
Evile

Cult(Tabs)

Evile

roll up this ad to continue

Tuning: Half-Step Down ( D#   G#   C#   F#   A#   D# ) 

			 Intro 
e|-------------------------|-----------------------| 
B|-------------------------|-----------------------| 
G|-------------------------|-----------------------| (4x) 
D|--/8---5\3\2----8-8/9\8--|--/8--5\3\2-/5--2------| 
A|--/8---5\3\2----8-8/9\8--|--/8--5\3\2-/5--2------| 
E|--/6---3\1\0----6-6/7\6--|--/6--3\1\0-/3--0------| 


			   Verse 
e|---------------------------|-----------------------------| 
B|---------------------------|-----------------------------| 
G|---------------------------|-----------------------------| (4x) 
D|--/8---5\3\2---------------|--/8--5\3\2-/5--2------------| 
A|--/8---5\3\2------2-------2|--/8--5\3\2-/5--2------2-----| 
E|--/6---3\1\0--0-0-0-0-0-0-0|--/6--3\1\0-/3--0--0-0-0-0---| 
           PM------------|            PM-------------------| 

			Chorus 
e|------------------------|--------------------------------| 
B|------------------------|--------------------------------| 
G|--5-----------5--5/6\5--|--5\----------------------------| 
D|--5----4------5--5/6\5--|--5\--6\5\3-/6------------------| 
A|--3----4------3--3/4\3--|--3\--6\5\3-/6------3-------3---| 
E|-------2----------------|------4\3\1-/4--1-1-1-1-1-1-1---| 
                       PM----------------------------------| 

e|--------------------------|----------------------| 
B|--------------------------|----------------------| 
G|--5\-------------5-5/6\3--|--5\------------------| 
D|--5\--6\5\3------5-5/6\3--|--5\--6\5\3-/6--2-----| 
A|--3\--6\5\3------3-3/4\3--|--3\--6\5\3-/6--2-----| 
E|------4\3\1--1-1----------|------4\3\1-/4--0-----| 
	      PM--| 

		      Intro Riff 
e|-------------------------|-----------------------| 
B|-------------------------|-----------------------| 
G|-------------------------|-----------------------| (2x) 
D|--/8---5\3\2----8-8/9\8--|--/8--5\3\2-/5--2------| 
A|--/8---5\3\2----8-8/9\8--|--/8--5\3\2-/5--2------| 
E|--/6---3\1\0----6-6/7\6--|--/6--3\1\0-/3--0------| 

			   Verse 
e|---------------------------|-----------------------------| 
B|---------------------------|-----------------------------| 
G|---------------------------|-----------------------------| (4x) 
D|--/8---5\3\2---------------|--/8--5\3\2-/5--2------------| 
A|--/8---5\3\2------2-------2|--/8--5\3\2-/5--2------2-----| 
E|--/6---3\1\0--0-0-0-0-0-0-0|--/6--3\1\0-/3--0--0-0-0-0---| 
           PM------------|            PM-------------------| 

			Chorus 
e|------------------------|--------------------------------| 
B|------------------------|--------------------------------| 
G|--5-----------5--5/6\5--|--5\----------------------------| 
D|--5----4------5--5/6\5--|--5\--6\5\3-/6------------------| 
A|--3----4------3--3/4\3--|--3\--6\5\3-/6------3-------3---| 
E|-------2----------------|------4\3\1-/4--1-1-1-1-1-1-1---| 
                       PM----------------------------------| 

e|--------------------------|----------------------| 
B|--------------------------|----------------------| 
G|--5\-------------5-5/6\3--|--5\------------------| 
D|--5\--6\5\3------5-5/6\3--|--5\--6\5\3-/6--2-----| 
A|--3\--6\5\3------3-3/4\3--|--3\--6\5\3-/6--2-----| 
E|------4\3\1--1-1----------|------4\3\1-/4--0-----| 
	      PM--| 

	 Bridge Riff 
e|---------------------------| 
B|---------------------------| 
G|---------------------------| 
D|-3----------3--------------| 
A|-1----------1--------------| 
E|----0-0-0-0----0-0-0-0-----| 
     PM------|  PM-----------| 

			Solo Base Guitar 
e|---------------------------|-----------------------------| 
B|---------------------------|-----------------------------| 
G|---------------------------|-----------------------------| (4x) 
D|--/8---5\3\2---------------|--/8--5\3\2-/5--2------------| 
A|--/8---5\3\2------2-------2|--/8--5\3\2-/5--2------2-----| 
E|--/6---3\1\0--0-0-0-0-0-0-0|--/6--3\1\0-/3--0--0-0-0-0---| 
           PM------------|            PM-------------------| 

		  Outro 
e|---------------------------------------| 
B|---------------------------------------| 
G|--9----9-11--12---14----16----17\16----| 
D|---------------------------------------| 
A|--7----7--9--10---12----14----15\14----| 
E|---------------------------------------| 

e|-----------------------17-14~---19br17p15--14~-12~-| 
B|-----------------15h17-----------------------------| 
G|--------14-11~~------------------------------------| 
D|--12h14--------------------------------------------| 
A|---------------------------------------------------| 
E|---------------------------------------------------| 


		      Intro Riff 
e|-------------------------|-----------------------| 
B|-------------------------|-----------------------| 
G|-------------------------|-----------------------| (2x) 
D|--/8---5\3\2----8-8/9\8--|--/8--5\3\2-/5--2------| 
A|--/8---5\3\2----8-8/9\8--|--/8--5\3\2-/5--2------| 
E|--/6---3\1\0----6-6/7\6--|--/6--3\1\0-/3--0------| 
 
share this page

See Also: