E-Chords
Evile

Centurion(Tabs)

Evile

roll up this ad to continue

Key: Eb
Tuning: Eb Bb Gb Db Ab Eb 

This is my first Tab so sorry if the  
timing's off on some parts. I've put 
as much of the song into this as I  
could make out and bits are missing 
(like the solo), so please e-mail me 
with anything that I've missed off to 
make it better, Thanks \m/ 


INTRO 


   | No.1                | No.2          
eb|---------------------|--------------| 
Bb|---------------------|--------------| 
Gb|---------------------|--------------| 
Db|---------------------|--------------| 
Ab|--5-8-12-17-20-18-11-|-10-9-8-7-6---| 
Eb|---------------------|--------------| x4 (only play No.1 until 4th time play No.2 after No.1) 
  
 | No.3          | No.4               
eb|---------------|---------------------| 
Bb|---------------|o-------------------o| 
Gb|---------------|---------------------| 
Db|---------------|o-------------------o| 
Ab|-2222222-88-33-|11-10-99999-88-33----| 
Eb|-0000000-66-11-|9--8--77777-66-11----| x4 (Only No.2 part is repeated) 

eb|-------------------| 
Bb|-------------------| 
Gb|-------------------| 
Db|-------------------| 
Ab|-11-10-9--8--3232--| 
Eb|-9--8--7--6--1010--| x4 


INTRO/VERSE FILL 

eb|---------------------------------------------------------------------------| 
Bb|-/9-9\7-7-9-10-10-7-6-5----------------------------------------------------| 
Gb|---------------------------------------------------------------------------| 
Db|---------------------------------------------------------------------------| 
Ab|----------------------------5-5555-5-5555--5-5555--5-5555--4-4444--4-4444--| 
Eb|---------------------------------------------------------------------------| 

eb|-----------------| 
Bb|-----------------| 
Gb|-----------------| 
Db|-----------------| 
Ab|-4-4444--4-4444\-| 
Eb|-----------------| 


VERSE ( I guard the great dominion...) 

 | No.1 x2                     | No.2 (Play on 2nd time) 
eb|-----------------------------|----------| 
Bb|-----------------------------|----------| 
Gb|-----------------------------|----------| 
Db|-----------------------------|----------| 
Ab|-2-2-22-22-33-2-22-22-14-14\-|-14\13\11-| 
Eb|-0-0-00-00-11-0-00-00-12-12\-|-12\11\10-| 


VERSE/CHORUS FILL (Prepare! Prepare for war...) 


eb|-------------------------------------------------------------------------| 
Bb|-------------------------------------------------------------------------| 
Gb|-------------------------------------------------------------------------| 
Db|-------------------------------------------------------------------------| 
Ab|-10-10-10-10-101010-10-10-10-10101010--9-9-9-9-999-9-9-9-9-999--9--10--9\| 
Eb|-------------------------------------------------------------------------| 


CHORUS Pt 1 (I give orders, obey...) 

eb|---------------|---------------------| 
Bb|---------------|---------------------| 
Bb|---------------|o-------------------o| 
Gb|---------------|---------------------| 
Db|---------------|o-------------------o| 
Ab|-2222222-88-33-|11-10-99999-88-33----| 
Eb|-0000000-66-11-|9--8--77777-66-11----| x4 Repeat as Intro (Last bar repeat) 

CHORUS Pt 2 ( I am Centurion!) 

eb|-------------------| 
Bb|-------------------| 
Gb|-------------------| 
Db|-------------------| 
Ab|-11-10-9--8--3232--| 
Eb|-9--8--7--6--1010--| x4  

THEN REPEAT:  

INTRO/VERSE FILL 

VERSE 

VERSE/CHORUS FILL 

CHORUS Pt 1 
CHORUS Pt 2 


CHORUS/SOLO RIFF FILL 

eb|-------------------------------------------------| 
Bb|-------------------------------------------------| 
Gb|-/9-9\7-9-10-10-9-10/12-12\10-9-10-14\12-10-9-7--| 
Db|-------------------------------------------------| 
Ab|-------------------------------------------------| 
Eb|-------------------------------------------------| 

eb|------------------------------------------------------------| 
Bb|------------------------------------------------------------| 
Gb|------------------------------------------------------------| 
Db|------------------------------------------------------------| 
Ab|-5-5555--5-5555--5-5555--5-5555--6-6666--7-7777\------------| 
Eb|------------------------------------------------------------| 


CHORUS/PRE-SOLO RIFF 

eb|-----------------------------------------------| 
Bb|-----------------------------------------------| 
Gb|-----------------------------------------------| 
Db|-4/16--------------------4/16------------------| 
Ab|-4/16-10\9--12\7--12\11--4/16-10\9--10\9-10\9--| 
Eb|-2/14-8-\7--10\5--10\9---2/14-8-\7--8-\7-8-\7--| x5 


SOLO RIFF (NOT SURE ABOUT THIS THOUGH, SORRY) 

eb|--------------------| 
Bb|--------------------| 
Gb|----12--------------| 
Db|-6--12--8\7--8\78\7-| 
Ab|-6--10--6\5--6\56\5-| 
Eb|-4------------------| x5 

****THERE'S ANOTHER RIFF HERE WHICH I CAN'T WORK OUT FOR 
THE LIFE OF ME, ANY HELP WITH THIS WOULD BE GREATLY  
APPRECIATED*** 

REPEAT: 

CHORUS Pt 1 
CHORUS Pt 2 

INTRO/VERSE FILL 
INTRO No.1 x4 No.2 on 4th time 

That's about as much as I got with this,  
and any contributions would be a  
great help and whatnot, especially  
the solo, cheers. :D 






************************************ 

| /   slide up 
| \   slide down 
| h   hammer-on 
| p   pull-off 
| ~   vibrato 
| +   harmonic 
| x   Mute note 
| b   Bend 
| pb  Pre-bend 
| br  Bend release 
| pbr Pre-bend release 
| brb Bend release bend 

************************************ 
share this page

See Also: