E-Chords
Evermore

Running(Tabs)

Evermore

roll up this ad to continue

Key: Em
INTRO: 
E||-----------7--------------9-7-9-7--| 
B||-----9-----------------------------| 
G||--9----------------------9---------| 
D||-----------------------------------| 
A||-----------------------------------| 
E||-----------------------------------| 
Em D too many words Em D too many lies C G i cant quite see the truth C D when i look into your eyes Bridge: Em D i feel i could Em D and i know i should C G step away turn around C D let my feet hit the ground C G D C G D ...running, running, running, running...
C G you dont need a broken heart D Am to know one can be broken C G D you just need to open your eyes.. yeah C G we dont need to be decieved D Am to know a lie can be spoken C G D we dont have to learn everything twice
Em D I dont know Em D I really dont know C G If this castle in the sand C D is strong enough to stand Bridge: Em D i feel i could Em D and i know i should C G step away turn around C D let my feet hit the ground C G D C G D ...running, running, running, running...
C G you dont need a broken heart D Am to know one can be broken C G D you just need to open your eyes.. yeah C G we dont need to be decieved D Am to know a lie can be spoken C G D we dont have to learn everything twice
C Coz i know G how it feels C all the pain D is so real C coz u sink G and you drown C D till your feet hit the ground C G D C G D ...running, running, running, running...
C G you dont need a broken heart D Am to know one can be broken C G D you just need to open your eyes.. yeah C G we dont need a tv show D Am to tell us which way to go C G D we just need to do what we know C G D woah woah woah C G D woah woah woah C G D woah woah woah C G D woah woah woah
E||-----------7--------------9-7-9-7--| 
B||-----9-----------------------------| 
G||--9----------------------9---------| 
D||-----------------------------------| 
A||-----------------------------------| 
E||-----------------------------------| 
share this page

See Also: