E-Chords
Eric Church

Old Friends Old Whiskey Old Songs(Tabs)

Eric Church

roll up this ad to continue

Key: G
Intro 
                               Gadd9    A                                        Gadd9    A 
e|----------------------------------------------|-------------------------------------------------|| 
B|---------------------------------3-xx-----2h3-|------------------------------------3-xx-----3p0-|| 
G|---------------------------------0-xx-2-2-2---|------------------------------------0-xx-2-2-2---|| 
D|-0-2/4-2p0-22-2/4-44-2p0---0----------2-2-2---|-0-2/4-2p0---0---2/4-44-2p0---0----------2-2-2---|| 
A|-------------------------2--------------------|-----------2----------------2--------------------|| 
E|-----------------------------3-3-3------------|--------------------------------3-3-3------------|| 


Verse 
   D       D/C   Gadd9   A           D       D/C   Gadd9   A 
e|-----------------------------------|------------------------------------| 
B|-----3-------3-------3---------3p0-|-----3-------3-------3---------2-22-| 
G|---2-2-2---2-2-2---0-0-0-------2---|---2-2-2---2-2-2---0-0-0-------2-22-| 
D|-0---------------------------2-----|-0---------------------------2------| 
A|---------4-------2-------0---------|---------4-------2-------0----------| 
E|-----------------------------------|------------------------------------| 

   D       D/C   Gadd9   A           Gadd9   D/F#    Em7     A 
e|-----------------------------------|---------------------------------|| 
B|-----3-------3-------3---------3p0-|-----3-------3-------3-------2-2-|| 
G|---2-2-2---2-2-2---0-0-0-------2---|-----0-------0-------0-------2-2-|| 
D|-0---------------------------2-----|---0---0---0---0---2---2---2-----|| 
A|---------4-------2-------0---------|-------------------------0-------|| 
E|-----------------------------------|-3-------2-------0---------------|| 


Chorus 
   D       D/C   Gadd9   A           D       D/C   Gadd9   A 
e|-----------------------------------|-----------------------------------| 
B|-----3-------3-------3---------2---|-----3-------3-------3---------2---| 
G|---2-2-2---2-2-2---0-0-0-------2---|---2-2-2---2-2-2---0-0-0-------2---| 
D|-0---------------------------2---2-|-0---------------------------2---2-| 
A|---------4-------2-------0---------|---------4-------2-------0---------| 
E|-----------------------------------|-----------------------------------| 

   Gadd9             Em7      Gadd9                        Em7         A  
e|-----3-33-----3-33-----3-33-----3-33-|-----3-33-----3-33-----3-33----------|| 
B|-----3-33-----3-33-----3-33-----3-33-|-----3-33-----3-33-----3-33-----2-22-|| 
G|-----0-00-----0-00-----0-00-----0-00-|-----0-00-----0-00-----0-00-----2-22-|| 
D|-----0-00-----0-00-----2-22-----0-00-|-----0-00-----0-00-----2-22-----2-22-|| 
A|-----2-22-----2-22-----2-22-----2-22-|-----2-22-----2-22-----2-22-0-0-0-00-|| 
E|-3-3-3-33-3-3-3-33-0-0-0-00-3-3-3-33-|-3-3-3-33-3-3-3-33-0-0-0-00----------|| 
   * *      * *      * *      * *        * *      * *      * *      * * 

Bridge 
   D                  Gadd9             Bm      A       G          D/F# E 
e|-2-2-2-23-33-3p2-22-3-3-3-33-33-3-3-|-2---2---0---0---3---3---3---3---3---3---3---3---2-2-2-23-22-2-|| 
B|-3-3-3-33-33-3---33-3-3-3-33-33-3-3-|-3---3---2---2---3---3---3---3---3---3---3---3---3=3-3-33-33-3-|| 
G|-2-2-2-22-22-2---22-0-0-0-00-00-0-0-|-4---4---2---2---0---0---0---2---0---0---0---0---2-2-2-22-22-2-|| 
D|-0-0-0-00-00-0---00-0-0-0-00-00-0-0-|-4---4---2---2---0---0---0---0---2---2---2---2---0-0-0-00-00-0-|| 
A|-0-0-0-00-00-0---00-2-2-2-22-22-2-2-|-2-2-2-2-0-0-0-0-2---2---2---0---2---2---2---2---0-0-0-00-00-0-|| 
E|--------------------3-3-3-33-33-3-3-|-----------------3-3-3-3-3-3-2-2-0-0-0-0-0-0-0-0---------------|| 

   Bm      A       G          D/F# E               A 
e|-2---2---0---0---3---3---3---3---3---3-33-33-3---0~~~~-|| 
B|-3---3---2---2---3---3---3---3---3---3-33-33-3---2~~~~-|| 
G|-4---4---2---2---0---0---0---2---0---0-00-00-0---2~~~~-|| 
D|-4---4---2---2---0---0---0---0---2---2-22-22-2---2~~~~-|| 
A|-2-2-2-2-0-0-0-0-2---2---2---0---2---2-22-22-2---0~~~~-|| 
E|-----------------3-3-3-3-3-3-2-2-0-0-0-00-00-0-0-------||  
share this page

See Also: