E-Chords
Enter Shikari

The Paddington Frisk(Tabs)

Enter Shikari

roll up this ad to continue

First verse (Listen for the changes and strumming) X2 
D|------------------------------------------------------------------------| 
A|------------------------------------------------------------------------| 
F|------9----11----12----14----16----17-----------------------------------| 
C|------x----x-----x-----x-----x-----x------------------------------------| 
G|------7----9-----10----12----14----15-----------------------------------| 
C|-14/2-------------------------------------------------------------------| 

But there stood a man. 
D|------------------------------------------------------------------------| 
A|------------------------------------------------------------------------| 
F|------------------------------------------------------------------------| 
C|------0--10--0--10------------------------------------------------------| 
G|------0--10--0--10------------------------------------------------------| 
C|-14/2-0--10--0--10------------------------------------------------------| 

Gandhi bit. (Listen for the changes and strumming) X2 
D|------------------------------------------------------------------------| 
A|------------------------------------------------------------------------| 
F|-9----10---12----14-----------------------------------------------------| 
C|-x----x----x-----x------------------------------------------------------| 
G|-7----9----10----12-----------------------------------------------------| 
C|------------------------------------------------------------------------| 

No matter if it all backfires. (Listen for the changes and strumming) X2 
D|------------------------------------------------------------------------| 
A|------------------------------------------------------------------------| 
F|-9----10---12----14-----------------------------------------------------| 
C|-x----x----x-----x------------------------------------------------------| 
G|-7----9----10----12-----------------------------------------------------| 
C|------------------------------------------------------------------------| 

This aint over yet.(Listen for the changes and strumming) 
D|------------------------------------------------------------------------| 
A|------------------------------------------------------------------------| 
F|-17--16--17--19---------------------------------------------------------| 
C|-x---x---x---x----------------------------------------------------------| 
G|-15--14--15--17---------------------------------------------------------| 
C|------------------------------------------------------------------------| 

Breakdown (Repeat until end) 
D|------------------------------------------------------------------------| 
A|------------------------------------------------------------------------| 
F|------------------------------------------------------------------------| 
C|------------------------------------------------------------------------| 
G|-2-2--14/2-----2--2-2--14/2----2--2-2--14/2----2--2-2--14/2-------------| 
C|-2-2--14/2-----2--2-2--14/2----2--2-2--14/2----2--2-2--14/2-------------| 

 
share this page

See Also: