E-Chords
Enter Shikari

The Last Garrison(Tabs)

Enter Shikari

roll up this ad to continue

Key: D
e|----------5-555-5-5-66-6---------------------------------------------------| 
B|--------------------------666-6-66-6-6-88-8--------------------------------| 
G|----------7-777-7-7-77-7--777-7-77-7-7-77-7--777-7-77-5-55-5---------------| 
D|---------------------------------------------555-5-55-3-33-3--555----------| 
A|--------------------------------------------------------------333----------| 
D|---------------------------------------------------------------------------| 

       CAN YOU HEAR THE        THE ADRENALINE BURSTS THROUGH THE RIVER BANKS 
           WAR CRY!                       WELCOME TO THE SKIRMISH! 

e|---------------------------------------------------------------------------| 
B|---------181818181818181818------------------------------------------------| 
G|----------------------------------------14p10----12-----10-----------------| 
D|---0--0--151515151515151515--0--0----0---------0------------14p10p0h14/15--| 
A|---0--0----------------------0--0----0---------.---------------------------| 
D|---0--0----------------------0--0----0--------------0-0--------------------| 
                                                      . . 

e|---------------------------------------------------------------------------| 
B|---------181818181818181818------------------------------------------------| 
G|----------------------------------------9/101010-14--12--1515151515--------| 
D|---0--0--151515151515151515--0--0----0-------------------------------------| 
A|---0--0----------------------0--0----0--7/8-8-8--12--10--1313131313--------| 
E|---0--0----------------------0--0----0-------------------------------------| 

                NO DOUBT                    THIS IS A TRAGEDY FOR ALL 
e|---------------------------------------------------------------------------| 
B|---------------------------------------------------------------------------| 
G|---------910--1010-9/10--10-10-9----------101010109-9-9-9-10101010---------| 
D|---0--0---------------------------0----0-----------------------------------| 
A|---0--0--7/8--8-8--7/8---8--8--7--0----0--8-8-8-8-8-8-8-8-8-8-8-8----------| 
D|---0--0---------------------------0----0-----------------------------------| 

    AND IT AINT OVER YET       HEADS UP AND THANK FUCK YOU'RE STILL ALIVE 
e|---------------------------------------------------------------------------| 
B|---------------------------------------------------------------------------| 
G|--10--101010101010--10---------------------17-17-17-17-17-17-17-17---------| 
D|--8---8-8-8-8-8-8---8---8---3--3-3-3-3-------------------------------------| 
A|--8---8-8-8-8-8-8---8---8---3--3-3-3-3--/--15-15-15-15-15-15-15-15---------| 
D|--8---8-8-8-8-8-8---8---8---3--3-3-3-3-------------------------------------| 

e:|--------------------------------------------------------------------------| 
B:|--------------------------------------------------------------------------| 
G:|--------------------------------------------------------------------------| 
D:|--10--12--10-10-10-10--12--7-7-7-7--8--7-7-7-7--8--10-10-10-10------------| 
A:|--10--12--10-10-10-10--12--7-7-7-7--8--7-7-7-7--8--10-10-10-10------------| 
D:|--10--12--10-10-10-10--12--7-7-7-7--8--7-7-7-7--8--10-10-10-10------------| 

                       WE'RE PART OF THE LAST GARRISON                         
e|---------------------------------------------------------------------------|: 
B|---------------------------------------------------------------------------|: 
G|---------------------------------10-------------12-------------------------|:x2^ 
D|--12--10-10-10-10--12--7-7-7-7---10---8-8-8-8---12---10-10-10-10-----------|: 
A|--12--10-10-10-10--12--7-7-7-7---8----8-8-8-8---10---10-10-10-10-----------|: 
D|--12--10-10-10-10--12--7-7-7-7--------8-8-8-8--------10-10-10-10-----------|: 

e|---------------------------------------------------------------------------| 
B|---------------------------------------------------------------------------| 
G|--14-14-14-14--10-10-10-1012-12----10---14-14-14-14--10-10-15--14--12-12---| VOCAL 
D|---------------------------------------------------------------------------| MELODY 
A|--12-12-12-12--8--8--8--8/10-10----8----12-12-12-12--8--8--13--12--10-10---| 
D|---------------------------------------------------------------------------| 

e|---------------------------------------------------------------------------| 
B|---------------------------------------------------------------------------| 
G|---------------------------------------------------------------------------| VOCAL 
D|---------------------------------------------------------------------------| MELODY 
A|--12-12-12-12--8--8--8--8/10-10---------12-12-12-12--8--8--13--12--10-10---| 
D|---------------------------------------------------------------------------| 

       CAN YOU HEAR THE         THE EPINEPHRINE PLOUGHS THROUGH THE BARRIERS 
           WAR CRY!                        WELCOME TO THE SKIRMISH! 

e|---------------------------------------------------------------------------| 
B|---------181818181818181818------------------------------------------------| 
G|----------------------------------------14p10----12--15---14h15---12h14----| 
D|---0--0--151515151515151515--0--0----0-------------------------------------| 
A|---0--0----------------------0--0----0-------------------------------------| 
D|---0--0----------------------0--0----0---------0----0---0-------0----------| 
                                                 .    .   .       . 

e|---------------------------------------------------------------------------| 
B|---------181818181818181818------------------------------------------------| 
G|----------------------------------------9/101010--12--10--9--10-9/10-------| 
D|---0--0--151515151515151515--0--0----0-------------------------------------| 
A|---0--0----------------------0--0----0--7/8-8-8---10--8---7--8--7/8--------| 
E|---0--0----------------------0--0----0-------------------------------------| 

                NO DOUBT                    THIS IS A TRAGEDY FOR ALL 
e|---------------------------------------------------------------------------| 
B|---------------------------------------------------------------------------| 
G|---------910--1010-9/10--10-10-9----------101010109-9-9-9-10101010---------| 
D|---0--0---------------------------0----0-----------------------------------| 
A|---0--0--7/8--8-8--7/8---8--8--7--0----0--8-8-8-8-8-8-8-8-8-8-8-8----------| 
D|---0--0---------------------------0----0-----------------------------------| 

    AND IT AINT OVER YET       HEADS UP AND THANK FUCK YOU'RE STILL ALIVE 
e|---------------------------------------------------------------------------| 
B|---------------------------------------------------------------------------| 
G|--10--101010101010--10--10-----------------17-17-17-17-17-17-17-17---------| 
D|--8---8-8-8-8-8-8---8---8---3--3-3-3-3-------------------------------------| 
A|--8---8-8-8-8-8-8---8---8---3--3-3-3-3--/--15-15-15-15-15-15-15-15---------| 
D|--8---8-8-8-8-8-8---8---8---3--3-3-3-3-------------------------------------| 

e:|--------------------------------------------------------------------------| 
B:|--------------------------------------------------------------------------| 
G:|--------------------------------------------------------------------------| 
D:|--10--12--10-10-10-10--12--7-7-7-7--8--7-7-7-7--8--10-10-10-10------------| 
A:|--10--12--10-10-10-10--12--7-7-7-7--8--7-7-7-7--8--10-10-10-10------------| 
D:|--10--12--10-10-10-10--12--7-7-7-7--8--7-7-7-7--8--10-10-10-10------------| 

                       WE'RE PART OF THE LAST GARRISON                         
e|---------------------------------------------------------------------------|: 
B|---------------------------------------------------------------------------|: 
G|---------------------------------10-------------12-------------------------|:x2^ 
D|--12--10-10-10-10--12--7-7-7-7---10---8-8-8-8---12---10-10-10-10-----------|: 
A|--12--10-10-10-10--12--7-7-7-7---8----8-8-8-8---10---10-10-10-10-----------|: 
D|--12--10-10-10-10--12--7-7-7-7--------8-8-8-8--------10-10-10-10-----------|: 

e|---------------------------------------------------------------------------| 
B|---------------------------------------------------------------------------| 
G|--14-14-14-14--10-10-10-1012-12----10---14-14-14-14--10-10-15--14--12-12---| VOCAL 
D|---------------------------------------------------------------------------| MELODY 
A|--12-12-12-12--8--8--8--8/10-10----8----12-12-12-12--8--8--13--12--10-10---| 
D|---------------------------------------------------------------------------| 

e|---------------------------------------------------------------------------| 
B|---------------------------------------------------------------------------| 
G|---------------------------------------------------------------------------| VOCAL 
D|---------------------------------------------------------------------------| MELODY 
A|--12-12-12-12--8--8--8--8/10-10---------12-12-12-12--8--8--13--12--10-10---| 
D|---------------------------------------------------------------------------| 

e|----------5-555-5-5-66-6---------------------------------------------------| 
B|--------------------------666-6-66-6-6-88-8--------------------------------| 
G|----------7-777-7-7-77-7--777-7-77-7-7-77-7--777-7-77-5-55-5---------------| 
D|---------------------------------------------555-5-55-3-33-3--555----------| x3 
A|--------------------------------------------------------------333----------| 
D|---------------------------------------------------------------------------| 

e|---------------------------------------------------------------------------| 
B|---------------------------------------------------------------------------| 
G|---------------------------------------------------------------------------| 
D|--10--12--10-10-10-10--12--7-7-7-7--8--7-7-7-7--8--10-10-10-10-------------| 
A|--10--12--10-10-10-10--12--7-7-7-7--8--7-7-7-7--8--10-10-10-10-------------| 
D|--10--12--10-10-10-10--12--7-7-7-7--8--7-7-7-7--8--10-10-10-10-------------| 

                       WE'RE PART OF THE LAST GARRISON                         
e|---------------------------------------------------------------------------| 
B|---------------------------------------------------------------------------| 
G|---------------------------------10-------------12-------------------------| 
D|--12--10-10-10-10--12--7-7-7-7---10---8-8-8-8---12---10-10-10-10-----------| 
A|--12--10-10-10-10--12--7-7-7-7---8----8-8-8-8---10---10-10-10-10-----------| 
D|--12--10-10-10-10--12--7-7-7-7--------8-8-8-8--------10-10-10-10-----------| 

e|---------------------------------------------------------------------------| 
B|---------------------------------------------------------------------------| 
G|---------------------------------------------------------------------------| 
D|--10--12--10-10-10-10--12--7-7-7-7--8--7-7-7-7--8--10-10-10-10-------------| 
A|--10--12--10-10-10-10--12--7-7-7-7--8--7-7-7-7--8--10-10-10-10-------------| 
D|--10--12--10-10-10-10--12--7-7-7-7--8--7-7-7-7--8--10-10-10-10-------------| 

                       WE'RE PART OF THE LAST GARRISON                         
e|---------------------------------------------------------------------------| 
B|------------------------------------------------------------------13-13----| 
G|---------------------------------10-------------101010-12-12-12------------| 
D|--12--10-10-10-10--12--7-7-7-7---10---8-8-8-8---------------------10-10----| 
A|--12--10-10-10-10--12--7-7-7-7---8----8-8-8-8---8-8-8--10-10-10------------| 
D|--12--10-10-10-10--12--7-7-7-7--------8-8-8-8------------------------------| 

e|---------------------------------------------------------------------------| 
B|---------------------------------------------------------------------------| 
G|---------------------------------------------------------------------------| 
D|--10--12--10-101010-10--12--7-777-7--8--7-777-7--8--10-101010-10-----------| 
A|--10--12--10-101010-10--12--7-777-7--8--7-777-7--8--10-101010-10-----------| 
D|--10--12--10-101010-10--12--7-777-7--8--7-777-7--8--10-101010-10-----------| 
               . . .            ...         ...          . . . 

e|---------------------------------------------------------------------------| 
B|---------------------------------------------------------------------------| 
G|-----------------------------------10-------------101010--12-12-12-12-12---| 
D|----12--10-101010-10--12--7-777-7--10--8-888-8-----------------------------| 
A|----12--10-101010-10--12--7-777-7--8---8-888-8----8-8-8-/ 10-10-10-10-10---| 
D|----12--10-101010-10--12--7-777-7------8-888-8-----------------------------| 
             . . .            ...          ... 

e|---------------------------------------------------------------------------| 
B|---------------------------------------------------------------------------| 
G|---------------------------------------------------------------------------| 
D|--10--12--10-101010-10--12--7-777-7--8--7-777-7--8--10-101010-10-----------| 
A|--10--12--10-101010-10--12--7-777-7--8--7-777-7--8--10-101010-10-----------| 
D|--10--12--10-101010-10--12--7-777-7--8--7-777-7--8--10-101010-10-----------| 
               . . .            ...         ...          . . .  

e|---------------------------------------------------------------------------| 
B|-----------------------------------------------------------13-13-13-13-----| 
G|-----------------------------------10--------------12-12-x-10-10-10-10-----| 
D|----12--10-101010-10--12--7-777-7--10--8-888-8--x--12-12-x-10-10-10-10-----| 
A|----12--10-101010-10--12--7-777-7--8---8-888-8--x--10-10-x-10-10-10-10-----| 
D|----12--10-101010-10--12--7-777-7------8-888-8--x--------------------------| 
             . . .            ...          ... 

************************************ 

| .   Palm muted note 
| /   slide up 
| \   slide down 
| h   hammer-on 
| p   pull-off 
| ~   vibrato 
| +   harmonic 
| x   Mute note 
| b   Bend 
| pb  Pre-bend 
| br  Bend release 
| pbr Pre-bend release 
| brb Bend release bend 

************************************ 
share this page

See Also: