E-Chords
Enter Shikari

Sssnakepit(Tabs)

Enter Shikari

roll up this ad to continue


d|--------------------------------------| 
A|--------------------------------------| 
F|---77777-----77777-----77777----------| 
C|--------------------------------------|     
G|-0-55555-6-5-55555-1-0-55555-6-6--6-6-| 
C|-0-------6-5-------1-0-------6-6--6-6-| 

d|--------------------------------------| 
A|--------------------------------------| 
F|---77777-----77777-----77777----------| 
C|--------------------------------------|     
G|-0-55555-6-5-55555-1-0-55555-6-6------| 
C|-0-------6-5-------1-0-------6-6------| 

d|--------------------------------------| 
A|--------------------------------------| 
F|---77777-----77777-----77777----------| 
C|--------------------------------------|    x4     
G|-0-55555-6-5-55555-1-0-55555-6-6--6-6-| 
C|-0-------6-5-------1-0-------6-6--6-6-| 


CHORUS 


(Played quietly) 

d|---------------------------------------------------------------------| 
A|---------------------------------------------------------------------| 
F|----------------5-7-7777777777777------------------------------------| 
C|-55555555555555-5-7-7777777777777-7-8-8888888888888--3-3333333333333-|    x2 
G|-55555555555555-3-5-5555555555555-7-8-8888888888888--3-3333333333333-| 
C|-55555555555555-------------------7-8-8888888888888--3-3333333333333-| 


VERSE 


d|----------------------------------------| 
A|----------------------------------------| 
F|-----77777-----77777-----77777----------| 
C|----------------------------------------|    x4 
G|-0-0-55555-6-5-55555-1-0-55555-6-6--6-6-| 
C|-0-0-------6-5-------1-0-------6-6--6-6-| 


BREAKDOWN 


d|------------------------------| 
A|------------------------------| 
F|----------6----------------3b-| 
C|----------6----------------3b-|    x2 
G|-00-3-1-0-4-0-1-3-00-3-1-0-1b-| 
C|-00-3-1-0---0-1-3-00-3-1-0----| 
   .. . . .   . . . .. . . . 

d|------------------------------| 
A|------------------------------| 
F|-----------6---------------3b-| 
C|-----------6---------------3b-| 
G|-00-3-1-00-4-0-1-3-0310--1-1b-| 
C|-00-3-1-00---0-1-3-0310--1----| 
   .. . . ..   . . . ....  . 


CHORUS 


(Played quietly) 

d|---------------------------------------------------------------------| 
A|---------------------------------------------------------------------| 
F|----------------5-7-7777777777777------------------------------------| 
C|-55555555555555-5-7-7777777777777-7-8-8888888888888--3-3333333333333-|    x2 
G|-55555555555555-3-5-5555555555555-7-8-8888888888888--3-3333333333333-| 
C|-55555555555555-------------------7-8-8888888888888--3-3333333333333-| 

d|--------------------------| 
A|--------------------------| 
F|-----5/7-7~~--------------| 
C|-5~~-5/7-7~~-7/8-8~~--3~~-|    x2 
G|-5~~-3/5-5~~-7/8-8~~--3~~-| 
C|-5~~---------7/8-8~~--3~~-| 
share this page

See Also: