E-Chords
Enter Shikari

Search Party(Tabs)

Enter Shikari

roll up this ad to continue

 

0:19 
Verse 1 x2 
 D#|--------------------------------------------------------------------|  
 A#|--------------------------------------------------------------------|  
 F#|--------------------------------------------------------------------|  
 C#|--------------------------------------------------------------------|  
 G#|-0-0-0-3-0-0-0-3-0-0-0-3-0-0-0-3-3-3-3-3-3-3-3-3-3-3-3-3-3-3-3-3----|  
 C#|-0-0-0-2-0-0-0-2-0-0-0-2-0-0-0-2-3-3-3-2-3-3-3-2-3-3-3-2-3-3-3-2----|  
PM  . . .   . . .   . . .   . . .   . . .   . . .   . . .   . . . 



Chorus 
 D#|-----------------------------------------------------------------------------------|  
 A#|-----------------------------------------------------------------------------------|  
 F#|-----------------------------------------------------------------------------------|  
 C#|---------------------------------(x3)-----------------------------------------(x1)-|  
 G#|-8-8-8-8-8-8-8-8-8-8-8-8-5-5-5-5------8-8-8-8-8-8-8-8-10-10-10-10-10-10-10-10------|  
 C#|-8-8-8-8-8-8-8-8-7-7-7-7-5-5-5-5------8-8-8-8-8-8-8-8-10-10-10-10-10-10-10-10------|  



Verse 2 
 D#|------------------------------------------------|  
 A#|------------------------------------------------|  
 F#|------------------------------------------------|  
 C#|------------------------------------------------|  
 G#|-00000-0-3-00000-0-3-00000-0-3-00000-0-8--------|  
 C#|-00000-0-2-00000-0-2-00000-0-2-00000-0-7--------|  
PM  ..... .   ..... .   ..... .   ..... . 

 D#|------------------------------------------------|  
 A#|------------------------------------------------|  
 F#|------------------------------------------------|  
 C#|------------------------------------------------|  
 G#|-88888-8-8-88888-8-8-88888-8-8-88888-5-5--------|  
 C#|-88888-8-7-88888-8-7-88888-8-7-88888-5-5--------|  
PM  ..... .   .....     .....     ..... . 



Verse 1 x2 
 D#|--------------------------------------------------------------------|  
 A#|--------------------------------------------------------------------|  
 F#|--------------------------------------------------------------------|  
 C#|--------------------------------------------------------------------|  
 G#|-0-0-0-3-0-0-0-3-0-0-0-3-0-0-0-3-3-3-3-3-3-3-3-3-3-3-3-3-3-3-3-3----|  
 C#|-0-0-0-2-0-0-0-2-0-0-0-2-0-0-0-2-3-3-3-2-3-3-3-2-3-3-3-2-3-3-3-2----|  
PM  . . .   . . .   . . .   . . .   . . .   . . .   . . .   . . . 



Verse 1 (Guitar 2) 1:28 
 D#|---------------------------------|  
 A#|---------------------------------|  
 F#|---------------------------------|  
 C#|---------------------------------|  
 G#|-88-8-8-78-88-8-8-88-------------|  
 C#|---------------------------------|  
PM  ..     .. ..     .. 



Chorus 
 D#|-----------------------------------------------------------------------------------|  
 A#|-----------------------------------------------------------------------------------|  
 F#|-----------------------------------------------------------------------------------|  
 C#|---------------------------------(x3)-----------------------------------------(x1)-|  
 G#|-8-8-8-8-8-8-8-8-8-8-8-8-5-5-5-5------8-8-8-8-8-8-8-8-10-10-10-10-10-10-10-10------|  
 C#|-8-8-8-8-8-8-8-8-7-7-7-7-5-5-5-5------8-8-8-8-8-8-8-8-10-10-10-10-10-10-10-10------|  



Breakdown/Bridge Build-up? (2:16) 
 D#|-----------------------------------------------------------------------|  
 A#|-----------------------------------------------------------------------|  
 F#|-----------------------------------------------------------------------|  
 C#|-----------------------------------------------------------------------|  
 G#|-----------------------------------------------------------------------|  
 C#|-12-12-12-12-12-12-12-3--3-3-6--6-6-6-1--1-1-1-1-1-1-1-1-4--3----------|  

 D#|-----------------------------------------------------------------------|  
 A#|-----------------------------------------------------------------------|  
 F#|-----------------------------------------------------------------------|  
 C#|-----------------------------------------------------------------------|  
 G#|------------------------------------------------------------4--3--0----|  
 C#|-0~/12-12-12-12-12-12-12-3--3-3-6--6-6-6-1--1-1-1-1-1-1-1-1-4--3--0----|  
PM                                                             .  . 



Breakdown/Bridge? x4 
 D#|---------------------------------------------------------------------|  
 A#|---------------------------------------------------------------------|  
 F#|---------------------------------------------------------------------|  
 C#|---------------------------------------------------------------------|  
 G#|-0----------------------3--3-3-6--6-6-6-1--1-1-1-1-1-1-1-1-4-3-------|  
 C#|-0-12-12-12-12-12-12-12-3--3-3-6--6-6-6-1--1-1-1-1-1-1-1-1-4-3-------|  
PM                         .  .      . . .    . .   . .   . 



Chorus/Outro (3:05 
 D#|----------------------------------------------|  
 A#|----------------------------------------------|  
 F#|----------------------------------------------|  
 C#|----------------------------------------------|  
 G#|-8-8-8-8-8-8-8-8-8-8-8-8-5-5-5-5--------------|  
 C#|-8-8-8-8-8-8-8-8-7-7-7-7-5-5-5-5--------------|  

 D#|----------------------------------------------|  
 A#|----------------------------------------------|  
 F#|----------------------------------------------|  
 C#|----------------------------------------------|  
 G#|-8-8-8-8-8-8-8-8-8-8-8-8-5-5-5-5--------------|  
 C#|-8-8-8-8-8-8-8-8-7-7-7-7-5-5-5-5--------------|  

 D#|----------------------------------------------|  
 A#|----------------------------------------------|  
 F#|----------------------------------------------|  
 C#|----------------------------------------------|  
 G#|-88888---8-8-8-8-8-8-8-8-5-5-5-5--------------|  
 C#|-88888---8-8-8-8-7-7-7-7-5-5-5-5--------------|

 D#|----------------------------------------------|  
 A#|----------------------------------------------|  
 F#|----------------------------------------------|  
 C#|--------------------------------10----10------|  
 G#|-8-8-8-8-8-8-8-8-10-10-10-10-10-10-10-10------|  
 C#|-8-8-8-8-8-8-8-8-10-10-10-10-10-10-10-10------|  
PM                              .     . 
share this page

See Also: