E-Chords
Enter Shikari

Radiate(Tabs)

Enter Shikari

roll up this ad to continue

Intro 


d|----------------------------------------------------| 
A|----------------------------------------------------| 
F|----------------------------------------------------| 
C|--7777777777777777----------------------------------| 
G|--7777777777777777----------------------------------| 
C|--7777777777777777--7p0-7p0-7p0-7p0-7p0-7p0-7p0-7p0-| 

d|------------------------------------------------------| 
A|------------------------------------------------------| 
F|------------------------------------------------------| 
C|------------------------------------------------------| 
G|------------------------------------------------------| 
C|--10p0-8p0-7p0-00-12\-0-3-0--10p0-8p0-7p0-00-12\-0-33-| 

d|--------------------------------------------------------| 
A|--------------------------------------------------------| 
F|--------------------------------------------------------| 
C|--------------------------------------------------------| 
G|--------------------------------------------------------| 
C|--10p0-0-8p0-7p0-00-12\-0-3-0--10p0-8p0-7p0-00-12\-0-33-| 

d|------------------------------------------------------| 
A|------------------------------------------------------| 
F|------------------------------------------------------| 
C|------------------------------------------------------| 
G|------------------------------------------------------| 
C|--10p0-8p0-7p0-00-12\-0-3-0--10p0-8p0-7p0-00-12\-0-33-| 

d|--------------------------------------------------------| 
A|--------------------------------------------------------| 
F|--------------------------------------------------------| 
C|--------------------------------------------------------| 
G|--------------------------------------------------------| 
C|--10p0-0-8p0-7p0-00-12\-0-3-0--10p0-8p0-7p0-00-12\-0-33-| 

d|------------------------------------| 
A|------------------------------------| 
F|------------------------------------| 
C|--5555555555555555--7-7-77-7-7-77-7-| 
G|--5555555555555555--7-7-77-7-7-77-7-| 
C|--5555555555555555--7-7-77-7-7-77-7-| 

verse 1 

Guitar 1: 

d|--------------------------------------------| 
A|--------------------------------------------| 
F|--------------------------------------------| 
C|--7-7-77-8-8-88-8--10-10-1010-12-12-1212-12-|      x8 
G|--5-5-55-5-5-55-5--8--8--8-8--10-10-1010-10-| 
C|--------------------------------------------| 

Guitar 2: 

d|----------------------| 
A|--5h6666666-5h6666666-| 
F|----------------------| 
C|----------------------|      x8 
G|----------------------| 
C|----------------------| 

Chorus 
**NOTE: The notes are right but I'm not sure what the easiest way to play it is, so I  
just put the way I figured it out as** 

d|------------------------------------------------------| 
A|------10---------10------8/10\8-----------------------| 
F|--------9-10--------9-10-------------12/14------------| 
C|--7-7--------8-8----------------10-10-----12-12-12-12-|      x2 
G|--5-5--------5-5----------------8--8------10-10-10-10-| 
C|------------------------------------------------------| 

d|------------------------------------------------------| 
A|------10---------10------8/10\8-----------------------| 
F|--------9-10--------9-10-------------12/14------------| 
C|--7-7--------8-8----------------10-10-----12-12-14-15-| 
G|--5-5--------5-5----------------8--8------10-10-12-12-| 
C|------------------------------------------------------| 

POST Chorus 


d|----------------------------------------------------| 
A|----------------------------------------------------| 
F|----------------------------------------------------| 
C|--7777777777777777----------------------------------| 
G|--7777777777777777----------------------------------| 
C|--7777777777777777--7p0-7p0-7p0-7p0-7p0-7p0-7p0-7p0-| 

d|------------------------------------------------------| 
A|------------------------------------------------------| 
F|------------------------------------------------------| 
C|------------------------------------------------------| 
G|------------------------------------------------------| 
C|--10p0-8p0-7p0-00-12\-0-3-0--10p0-8p0-7p0-00-12\-0-33-| 

d|--------------------------------------------------------| 
A|--------------------------------------------------------| 
F|--------------------------------------------------------| 
C|--------------------------------------------------------| 
G|--------------------------------------------------------| 
C|--10p0-0-8p0-7p0-00-12\-0-3-0--10p0-8p0-7p0-00-12\-0-33-| 

d|------------------------------------------------------| 
A|------------------------------------------------------| 
F|------------------------------------------------------| 
C|------------------------------------------------------| 
G|------------------------------------------------------| 
C|--10p0-8p0-7p0-00-12\-0-3-0--10p0-8p0-7p0-00-12\-0-33-| 

d|--------------------------------------------------------| 
A|--------------------------------------------------------| 
F|--------------------------------------------------------| 
C|--------------------------------------------------------| 
G|--------------------------------------------------------| 
C|--10p0-0-8p0-7p0-00-12\-0-3-0--10p0-8p0-7p0-00-12\-0-33-| 


SOFT SECTION 


Guitar 1: 

d|-------8-------------8----8----| 
A|----10---10-------10---11---11-| 
F|-10---------10-10--------------| 
C|-------------------------------|      x8 
G|-------------------------------| 
C|-------------------------------| 

Guitar 2: 

d|----------------------| 
A|----------------------| 
F|------8--------9-9-10-| 
C|---7-------10---------|      x8 
G|-8---8---8----8-8-----| 
C|----------------------| 

Guitar 1: 

d|------8------8--------------------8---| 
A|-10-----10----10-----10----11------10-| 
F|----10-----10-----------10-----10-----| 
C|--------------------------------------|      x3 
G|--------------------------------------| 
C|--------------------------------------| 

d|------8------8----------------| 
A|-10-----10----10-----10----11-| 
F|----10-----10-----------10----| 
C|------------------------------| 
G|------------------------------| 
C|------------------------------| 

Guitar 2: 

d|------------------------------------------------------------------| 
A|------------------------------------------------------------------| 
F|------------------------------------------------------------------| 
C|-7---7---7---8---8---8---8---8---10--10--10--14--14--14--15--15---|      x3 
G|---5---5---5---5---5---5---5---5---8---8---8---10--10--10--10--10-| 
C|------------------------------------------------------------------| 

d|-------------------------------------------------| 
A|-------------------------------------------------| 
F|-------------------------------------------------| 
C|-7---7---7---8---8---8---8---8---10--10--10--10--| 
G|---5---5---5---5---5---5---5---5---8---8---8---8-| 
C|-------------------------------------------------| 

verse 2 


Guitar 1: 

d|--------------------------------------------| 
A|--------------------------------------------| 
F|--------------------------------------------| 
C|--7-7-77-8-8-88-8--10-10-1010-12-12-1212-12-|      x8 
G|--5-5-55-5-5-55-5--8--8--8-8--10-10-1010-10-| 
C|--------------------------------------------| 

Guitar 2: 

d|----------------------| 
A|--5h6666666-5h6666666-| 
F|----------------------| 
C|----------------------|      x8 
G|----------------------| 
C|----------------------| 

Chorus 


d|------------------------------------------------------| 
A|------10---------10------8/10\8-----------------------| 
F|--------9-10--------9-10-------------12/14------------| 
C|--7-7--------8-8----------------10-10-----12-12-12-12-|      x4 
G|--5-5--------5-5----------------8--8------10-10-10-10-| 
C|------------------------------------------------------| 

verse 3 


d|--------------------------------------------| 
A|--------------------------------------------| 
F|--------------------------------------------| 
C|--7-7-77-8-8-88-8--10-10-1010-12-12-1212-12-|      x8 
G|--5-5-55-5-5-55-5--8--8--8-8--10-10-1010-10-| 
C|--------------------------------------------| 

OUTRO 


Guitar 1: 

d|-------8-------------8----8----| 
A|----10---10-------10---11---11-| 
F|-10---------10-10--------------| 
C|-------------------------------|      x8 
G|-------------------------------| 
C|-------------------------------| 

Guitar 2: 

d|----------------------| 
A|----------------------| 
F|------8--------9-9-10-| 
C|---7-------10---------|      x8 
G|-8---8---8----8-8-----| 
C|----------------------| 
share this page

See Also: