E-Chords
Enter Shikari

Quelle Surprise(Tabs)

Enter Shikari

roll up this ad to continue

Key: C
0:35 - 0:52 TAPPING BIT, LISTEN TO IT FOR TIMING ETC.
 
D|---------------------------|---------------------------|---------------------------| 
A|---------------------------|---------------------------|---------------------------| 
F|---------------------------|---------------------------|---------------------------| 
C|-h14p10p9------------------|-h16p10p9------------------|-h17p10p9------------------| 
G|---------------------------|---------------------------|---------------------------| 
C|---------------------------|---------------------------|---------------------------| 


VERSE x2 0:52 

D|---------------------------|---------------------------|---------------------------| 
A|---------------------------|---------------------------|---------------------------| 
F|---------------------------|---------------------------|---------------------------| 
C|-2---2----2---2---2----2---|-5---5----5---5---5----5---|-2---2----2---2---2----2---| 
G|-2---2----2---2---2----2---|-5---5----5---5---5----5---|-2---2----2---2---2----2---| 
C|-2---2----2---2---2----2---|-5---5----5---5---5----5---|-2---2----2---2---2----2---| 


D|---------------------------|---------------------------|---------------------------| 
A|---------------------------|---------------------------|---------------------------| 
F|---------------------------|---------------------------|---------------------------| 
C|-5---5----5---5---5----5---|-10--10---10--10--10---10--|-7---7----7---7---7----7---| 
G|-5---5----5---5---5----5---|-10--10---10--10--10---10--|-7---7----7---7---7----7---| 
C|-5---5----5---5---5----5---|-10--10---10--10--10---10--|-7---7----7---7---7----7---| 


D|---------------------------|---------------------------| 
A|---------------------------|---------------------------| 
F|---------------------------|---------------------------| 
C|-10--10---10--10--10---10--|-12--12---12--12--12---12--| 
G|-10--10---10--10--10---10--|-12--12---12--12--12---12--| 
C|-10--10---10--10--10---10--|-12--12---12--12--12---12--| 


CHORUS x2 1:10
 
D|---------------------------|---------------------------|---------------------------| 
A|---------------------------|---------------------------|---------------------------| 
F|---------------------------|---------------------------|---------------------------| 
C|-7---7----7---7---7----7---|-7---7----7---7---7----7---|-2---2----2---2---2----2---| 
G|-7---7----7---7---7----7---|-7---7----7---7---7----7---|-2---2----2---2---2----2---| 
C|-7---7----7---7---7----7---|-7---7----7---7---7----7---|-2---2----2---2---2----2---| 


D|---------------------------|---------------------------|---------------------------| 
A|---------------------------|---------------------------|---------------------------| 
F|---------------------------|---------------------------|---------------------------| 
C|-2---2----2---2---2----2---|-12--12---12--12--12---12--|-12--12---12--12--12---12--| 
G|-2---2----2---2---2----2---|-10--10---10--10--10---10--|-10--10---10--10--10---10--| 
C|-2---2----2---2---2----2---|-10--10---10--10--10---10--|-10--10---10--10--10---10--| 


D|---------------------------|---------------------------| 
A|---------------------------|---------------------------| 
F|---------------------------|---------------------------| 
C|-12--12---12--12--12---12--|-12--12---12--12--12---12--| 
G|-12--12---12--12--12---12--|-12--12---12--12--12---12--| 
C|-12--12---12--12--12---12--|-12--12---12--12--12---12--| 


VERSE x2 1:27 

D|---------------------------|---------------------------|---------------------------| 
A|---------------------------|---------------------------|---------------------------| 
F|---------------------------|---------------------------|---------------------------| 
C|-2---2----2---2---2----2---|-5---5----5---5---5----5---|-2---2----2---2---2----2---| 
G|-2---2----2---2---2----2---|-5---5----5---5---5----5---|-2---2----2---2---2----2---| 
C|-2---2----2---2---2----2---|-5---5----5---5---5----5---|-2---2----2---2---2----2---| 


D|---------------------------|---------------------------|---------------------------| 
A|---------------------------|---------------------------|---------------------------| 
F|---------------------------|---------------------------|---------------------------| 
C|-5---5----5---5---5----5---|-10--10---10--10--10---10--|-7---7----7---7---7----7---| 
G|-5---5----5---5---5----5---|-10--10---10--10--10---10--|-7---7----7---7---7----7---| 
C|-5---5----5---5---5----5---|-10--10---10--10--10---10--|-7---7----7---7---7----7---| 


D|---------------------------|---------------------------| 
A|---------------------------|---------------------------| 
F|---------------------------|---------------------------| 
C|-10--10---10--10--10---10--|-12--12---12--12--12---12--| 
G|-10--10---10--10--10---10--|-12--12---12--12--12---12--| 
C|-10--10---10--10--10---10--|-12--12---12--12--12---12--| 


CHORUS x2 1:45 

D|---------------------------|---------------------------|---------------------------| 
A|---------------------------|---------------------------|---------------------------| 
F|---------------------------|---------------------------|---------------------------| 
C|-7---7----7---7---7----7---|-7---7----7---7---7----7---|-2---2----2---2---2----2---| 
G|-7---7----7---7---7----7---|-7---7----7---7---7----7---|-2---2----2---2---2----2---| 
C|-7---7----7---7---7----7---|-7---7----7---7---7----7---|-2---2----2---2---2----2---| 


D|---------------------------|---------------------------|---------------------------| 
A|---------------------------|---------------------------|---------------------------| 
F|---------------------------|---------------------------|---------------------------| 
C|-2---2----2---2---2----2---|-12--12---12--12--12---12--|-12--12---12--12--12---12--| 
G|-2---2----2---2---2----2---|-10--10---10--10--10---10--|-10--10---10--10--10---10--| 
C|-2---2----2---2---2----2---|-10--10---10--10--10---10--|-10--10---10--10--10---10--| 


D|---------------------------|---------------------------| 
A|---------------------------|---------------------------| 
F|---------------------------|---------------------------| 
C|-12--12---12--12--12---12--|-12--12---12--12--12---12--| 
G|-12--12---12--12--12---12--|-12--12---12--12--12---12--| 
C|-12--12---12--12--12---12--|-12--12---12--12--12---12--| 


PRE BREAKDOWN 2:02 

D|---------------------------|---------------------------|---------------------------| 
A|---------------------------|---------------------------|---------------------------| 
F|---------------------------|---------------------------|---------------------------| 
C|-2~~-----------------------|--------2~~----------------|-2----5----4----2~---------| 
G|-2~~-----------------------|--------2~~----------------|-2----5----4----2~---------| 
C|-2~~-----------------------|-5*^----2~~----------------|-2----5----4----2~---------| 
     IF YOU STAND FOR NOTHING...                           .    .    . 

D|---------------------------|---------------------------|---------------------------| 
A|---------------------------|---------------------------|---------------------------| 
F|---------------------------|---------------------------|---------------------------| 
C|-3~----2----2--2----2--2---|-2--2----2--2----2--2------|-2--2----------------------| 
G|-3~----2----2--2----2--2---|-2--2----2--2----2--2------|-2--2----------------------| 
C|-3~----2----2--2----2--2---|-2--2----2--2----2--2------|-2--2----------------------| 


BREAKDOWN x2 2:19 
First time no lyrics then lyrics come in second time - WHEN ROU CUTS OFF ON THE LYRICS, 
 SO DOES THE GUITAR, SO LISTEN 

D|---------------------------|---------------------------|---------------------------| 
A|---------------------------|---------------------------|---------------------------| 
F|---------------------------|---------------------------|---------------------------| 
C|-2---2---2---22---2---22---|-2---2---2---22---2---22---|-2---2---2---22---2---22---| 
G|-2---2---2---22---2---22---|-2---2---2---22---2---22---|-2---2---2---22---2---22---| 
C|-2---2---2---22---2---22---|-2---2---2---22---2---22---|-2---2---2---22---2---22---| 
   .   .   .   ..   .   ..     .   .   .   ..   .   ..     .   .   .   ..   .   .. 

D|---------------------------|---------------------------|---------------------------| 
A|---------------------------|---------------------------|---------------------------| 
F|---------------------------|---------------------------|---------------------------| 
C|-5---5---5---55---5--------|-2---2---2---22---2---22---|-2---2---2---22---2---22---| 
G|-5---5---5---55---5--------|-2---2---2---22---2---22---|-2---2---2---22---2---22---| 
C|-5---5---5---55---5--------|-2---2---2---22---2---22---|-2---2---2---22---2---22---| 
   .   .   .   ..   .          .   .   .   ..   .   ..     .   .   .   ..   .   .. 

D|---------------------------|---------------------------| 
A|---------------------------|---------------------------| 
F|---------------------------|---------------------------| 
C|-2---2---2---22---2---22---|-5---5---5---55---5--------| 
G|-2---2---2---22---2---22---|-5---5---5---55---5--------| 
C|-2---2---2---22---2---22---|-5---5---5---55---5--------| 
   .   .   .   ..   .   ..     .   .   .   ..   . 


SYNTHY BIT 2:53 


RORY PLAYS THIS IN THE BUILD UP TO THE OUTRO x2 3:27 

D|-12----12----12----12------|-14----14----14----14------|-15----15----15----15------| 
A|----12----12----12----12---|----12----12----12----12---|----12----12----12-----12--| 
F|---------------------------|---------------------------|---------------------------| 
C|---------------------------|---------------------------|---------------------------| 
G|---------------------------|---------------------------|---------------------------| 
C|---------------------------|---------------------------|---------------------------| 

D|-14----14----14----14------| 
A|----12----12----12----12---| 
F|---------------------------| 
C|---------------------------| 
G|---------------------------| 
C|---------------------------| 


OUTRO x2 3:45 

D|---------------------------|---------------------------|---------------------------| 
A|---------------------------|---------------------------|---------------------------| 
F|---------------------------|---------------------------|---------------------------| 
C|-7--7--7--7--7--7--7--7----|-2--2--2--2--2--2--2--2----|-12-12-12-12-12-12-12-12---| 
G|-7--7--7--7--7--7--7--7----|-2--2--2--2--2--2--2--2----|-10-10-10-10-10-10-10-10---| 
C|-7--7--7--7--7--7--7--7----|-2--2--2--2--2--2--2--2----|-10-10-10-10-10-10-10-10---| 

D|---------------------------| 
A|---------------------------| 
F|---------------------------| 
C|-12-12-12-12-12-12-12-12---| 
G|-12-12-12-12-12-12-12-12---| 
C|-12-12-12-12-12-12-12-12---| 


OUTRO x2 4:02 

D|---------------------------|---------------------------|---------------------------| 
A|---------------------------|---------------------------|---------------------------| 
F|---------------------------|---------------------------|---------------------------| 
C|-7--7--7--7--7--7--7--7----|-2--2--2--2--2--2--2--2----|-12-12-12-12-12-12-12-12---| 
G|-7--7--7--7--7--7--7--7----|-2--2--2--2--2--2--2--2----|-10-10-10-10-10-10-10-10---| 
C|-7--7--7--7--7--7--7--7----|-2--2--2--2--2--2--2--2----|-10-10-10-10-10-10-10-10---| 

D|---------------------------| 
A|---------------------------| 
F|---------------------------|    
C|-12-12-12-12-12-12-12-12---| 
G|-12-12-12-12-12-12-12-12---| 
C|-12-12-12-12-12-12-12-12---| 



 
share this page

See Also: