E-Chords
Enter Shikari

Never Let Go Of The Microscope(Tabs)

Enter Shikari

roll up this ad to continue

D|--------| 
A|-7-8-10-| 
F|--------| 
C|--------| 
G|--------| 
C|--------|  

All tapped with right hand. 
D|----------------| 
A|-12-12----------| 
F|-------11/9-----| 
C|------------9/7-| 
G|----------------| 
C|----------------| 


This.                              Or 
D|--------------------------------|-------------------------------| 
A|-12---------------------10-10---|-12--------------------10-10---| 
F|---12-11-12-11-12-11-12------11-|---12-11-12-11-12-9-12------11-| 
C|--------------------------------|-------------------------------| 
G|--------------------------------|-------------------------------| 
C|--------------------------------|-------------------------------| 


Chorus 2 
D|---| 
A|---| 
F|---| 
C|-2-| (x16) 
G|-2-| 
C|-2-| 

D|---| 
A|---| 
F|---| 
C|-0-| (x16) 
G|-0-| 
C|-0-| 


Then bend this note to death. Or use a whammy pedal. 
D|-----| 
A|-19b-| 
F|-----| 
C|-----| (x32) 
G|-----| 
C|-----| 

Then there are some weird horn samples and Rory messing  
with whammy pedal pitch shifting some notes. 

*Toybox ending*: 

D|-19-15-14-15-14-15-12-15-17-17-17-17-14-14-14-14-| 
A|-------------------------------------------------| 
F|-------------------------------------------------| 
C|-------------------------------------------------| 
G|-------------------------------------------------| 
C|-------------------------------------------------| 

 
share this page

See Also: