E-Chords
Enter Shikari

Destabilise(Tabs)

Enter Shikari

roll up this ad to continue

Key: C
Intro/Verse 

d|---------------------------------------------| 
A|---------------------------------------------| 
F|---------------------------------------------| 
C|-7-7-7-7-7-7-7-7-7-5-5-5-5-5-5-5-5-5-3-3-3-2-| (2x) 
G|-5-5-5-5-5-5-5-5-5-3-3-3-3-3-3-3-3-3-1-1-1-0-| 
C|---------------------------------------------| 

Chorus 1 

d|----------------------------------------------------------------| 
A|----------------------------------------------------------------| 
F|----------------------------------------------------------------| 
C|-5-5-5-5-8-8-8-12-12-10-10-8-0-0-0-0-14-14-14-15-15-15-14-14-14-| (2x) 
G|-5-5-5-5-8-8-8-8--8--8--8--8-0-0-0-0-15-15-15-15-15-15-15-15-15-| 
C|-5-5-5-5-8-8-8-8--8--8--8--8-0-0-0-0-14-14-14-14-14-14-14-14-14-| 

d|-----------| 
A|-----------| 
F|-----------| 
C|-0-0-0-0-0-| 
G|-0-0-0-0-0-| 
C|-0-0-0-0-0-| 

Break 

d|---------------| 
A|---------------| 
F|---------------| 
C|-0-0-0-0-0-0-0-| 
G|-0-0-0-0-0-0-0-| 
C|-0-0-0-0-0-0-0-| 

d|----------| 
A|-15-------| 
F|----14-13-| 
C|----------| 
G|----------| 
C|----------| 

d|---------------------| 
A|---------------------| 
F|---------------------| 
C|-0-0-0-0-0-0-0---0-0-| 
G|-0-0-0-0-0-0-0---0-0-| 
C|-0-0-0-0-0-0-0---0-0-| 

d|----------| 
A|-15-------| 
F|----14-13-| 
C|----------| 
G|----------| 
C|----------| 

d|---------------------| 
A|---------------------| 
F|---------------------| 
C|-0-0-0-0-0-0-0-0-0-0-| 
G|-0-0-0-0-0-0-0-0-0-0-| 
C|-0-0-0-0-0-0-0-0-0-0-| 

d|----------| 
A|-15-------| 
F|----14-13-| 
C|----------| 
G|----------| 
C|----------| 

d|---------------------| 
A|---------------------| 
F|---------------------| 
C|-0-0-0-0-0-0-0-0-0-0-| 
G|-0-0-0-0-0-0-0-0-0-0-| 
C|-0-0-0-0-0-0-0-0-0-0-| 

d|----------| 
A|-15-------| 
F|----14-13-| 
C|----------| 
G|----------| 
C|----------| 

d|--------------| 
A|--------------| 
F|--------------| 
C|--------------| 
G|------x-0-x-0-| 
C|-16/1-x-0-x-0-| 

d|-------------| 
A|-------------| 
F|-------------| 
C|-x-0-x-0-x-0-| 
G|-x-0-x-0-x-0-| 
C|-x-0-x-0-x-0-| 

Chorus 2 

d|----------------------------------------------------------------| 
A|----------------------------------------------------------------| 
F|----------------------------------------------------------------| 
C|-5-5-5-5-8-8-8-12-12-10-10-8-0-0-0-0-14-14-14-15-15-15-14-14-14-| (2x) 
G|-5-5-5-5-8-8-8-8--8--8--8--8-0-0-0-0-15-15-15-15-15-15-15-15-15-| 
C|-5-5-5-5-8-8-8-8--8--8--8--8-0-0-0-0-14-14-14-14-14-14-14-14-14-| 

d|-----------| 
A|-----------| 
F|-----------| 
C|-0-0-0-0-0-| 
G|-0-0-0-0-0-| 
C|-0-0-0-0-0-| 

Bridge 

d|---------| 
A|---------| 
F|---------| 
C|-0-0-0-0-| 
G|-0-0-0-0-| 
C|-0-0-0-0-| 

d|-------------| 
A|-------------| 
F|-------------| 
C|-0-0-0-0-0-0-| 
G|-0-0-0-0-0-0-| 
C|-0-0-0-0-0-0-| 

Chorus 3 


NOTE: The THIRD time you play this through, DO NOT PLAY the Fs (5s) 

d|----------------------------------------------------------------| 
A|----------------------------------------------------------------| 
F|----------------------------------------------------------------| 
C|-5-5-5-5-8-8-8-12-12-10-10-8-0-0-0-0-14-14-14-15-15-15-14-14-14-| (4x) 
G|-5-5-5-5-8-8-8-8--8--8--8--8-0-0-0-0-15-15-15-15-15-15-15-15-15-| 
C|-5-5-5-5-8-8-8-8--8--8--8--8-0-0-0-0-14-14-14-14-14-14-14-14-14-| 
 
share this page

See Also: