E-Chords
Enter Shikari

Anaesthetist(Tabs)

Enter Shikari

roll up this ad to continue

Key: C
 

Tuning: Drop C 

Hello, here's the tab for Anaesthetist by Enter Shikari...  
I tabbed it by ear, so it may have some mistakes 


Intro w/ mod: 

e|--8------------10------------12----------10--------------------------------| 
B|----12--10--------12--10--------12--10------12--10-------------------------| 
G|-----------9-------------9------------9------------9-----------------------| 
D|---------------------------------------------------------------------------| 
A|---------------------------------------------------------------------------| 
E|---------------------------------------------------------------------------| 


Chorus: 

e|-----------------------------------------------------------| 
B|-----------------------------------------------------------| 
G|--22222222-------------------------------------------------| x2 
D|--22222222----55555555---00000000--------2222-3333---------|  
A|--00000000----55555555---00000000--------2222-3333---------| 
E|--------------55555555---00000000---/12--2222-3333---------| 


e|-------------------| 
B|-------------------| 
G|-------------------| 
D|--0-------2--3-----|  
A|--0-------2--3-----| 
E|--0--/12--2--3-----| 

Verse: 

e|---8-----------10-----------8----------10-----------| 
B|-----12--10-------12--10------12--10-----12--10-----| 
G|------------9------------9----------9----------9----| 
D|----------------------------------------------------| 
A|----------------------------------------------------| 
E|----------------------------------------------------| 


Repeat Chorus 

Post Chorus: 
(In the back, you can hear the intro as well) 

e|------------------| 
B|------------------| 
G|--2---------------| 
D|--2---or---7------| 
A|--0--------7------| 
E|-----------7------| 


Outro: 

e|--------------------------------------------------------| 
B|--------------------------------------------------------| 
G|--------------------------------------------------------| 
D|--7-777-77777--7-777-77777---7-777-77777--7-777-77------| x2 
A|--7-777-77777--7-777-77777---7-777-77777--7-777-77------| 
E|--7-777-77777--7-777-77777---7-777-77777--7-777-77------| 
          .....        .....         .....        .. 

************************************ 

| /   slide up 
| \   slide down 
| h   hammer-on 
| p   pull-off 
| ~   vibrato 
| +   harmonic 
| x   Mute note 
| b   Bend 
| pb  Pre-bend 
| br  Bend release 
| pbr Pre-bend release 
| brb Bend release bend 

************************************ 
share this page

See Also: